» » »

Justin Bieber - What Do You Mean Tabs

Artists:  A B C D E F G H I J K L M N O P Q R S T U V W X Y Z # 

What Do You Mean Tabs

(ver. 2) Click to play this song!
Justin Bieber
 Rating:
3.3/5 (24 votes)

 What Do You Mean  lessons Tabs too difficult? Try these video lessons and learn fast
 
                INTRO
e|--------------------------------------------------------------------|
B|----3-------3--------0---------3---------3--------------------------|
G|----0-------4--------0---------2---------0--------------------------| X2
D|----2-------0--------2----0----4---------2--------------------------|
A|----3----------------2---------5----0----3-----0--------------------|
E|------------3T------------------------------------------------------|


CHORUS
e|-------------------------------------------------0------------------------|
B|------3--3--------3--3----0--0--------3------3---3-----------3------------|
G|----0-0-------0---4--4----0--0--------2------2-------0----0--0------------|
D|------2----0h2----0--0----2--2--------4------4-------2----2---------------|
A|----3---------------------2-----------5----5---------3---3----------------|
E|------------------3T-3T---------------------------------------------------|

e|------------------------------------------------0-----0-------------------|
B|------3--3--------3--3----0--0--------3------3--3--3--3---3-3-------------|
G|----0-0-------0---4--4----0--0--------2------2-----2------0-0-------------|
D|------2----0h2----0--0----2--2--------4------4-----4------2-2-------------|
A|----3---------------------2-----------5----5------------3---3-------------|
E|------------------3T-3T---------------------------------------------------|

e|----0---------------------------------------------------------------|
B|----1-0-3----------3--3----0--0-------1-0-3----------------3--------|
G|----0-0-0-0h2-0----4--4----0--0---0---2-0-0-----0--0--0----0---0----| X2
D|----2--------------0--0----2--2-------0-----0h2----2--2----2--------|
A|----3----------------------2----------3------------3--3---3---------|
E|-------------------3T-----------------------------------------------|


VERSE
e|--------------------------------------------------------------------|
B|----3-------3--------0---------3---------3--------------------------|
G|----0-------4--------0---------2---------0--------------------------|
D|----2-------0--------2----0----4---------2--------------------------|
A|----3----------------2---------5----0----3-----0--------------------|
E|------------3T------------------------------------------------------|

e|--------------------------------------------------------------------|
B|----3-------3--------0---------3---------3--------------------------|
G|----0-------4--------0---------2---------0--------------------------|
D|----2-------0--------2----0----4---------2--------------------------|
A|----3----------------2---------5----0----3-----0--------------------|
E|------------3T---------------------------------------xx10\5---------|


CHORUS
e|--------------------------------------------------------------------|
B|------3--3----------3-----0----------3--------7-7--------3----------|
G|----0-0-------0-----4-----0----------2--------7-7---0----0--0-------|
D|------2----0h2------0-----2----------4--------------2----2--2-------|
A|----3---------------------2----------5----5/9-------3---3-----------|
E|------------------3T------------------------------------------------|

e|-----------------------------------------------0----0---------------|
B|------3--3----------3-----0----------3------3--3--3-3---------------|
G|----0-0-------0-----4-----0----------2------2-----2-----------------|
D|------2----0h2------0-----2----------4------4-----4-----------------|
A|----3---------------------2----------5----5-------------------------|
E|------------------3T------------------------------------------------|

e|----0---------------------------------------------------------------|
B|----1-0-3----------3--3----0--0-------1-0-3----------------3--------|
G|----0-0-0-0h2-0----4--4----0--0---0---2-0-0-----0--0--0----0---0----| X2
D|----2--------------0--0----2--2-------0-----0h2----2--2----2--------|
A|----3----------------------2----------3------------3--3---3---------|
E|-------------------3T-----------------------------------------------|

e|--------------------------------------------------------------------|
B|----3-------3---------0---------3---------3-------------------------|
G|----0-------4---------0---------2---------0-------------------------|
D|----2-------0---------2----0----4---------2-------------------------|
A|----3-----------------2---------5----0----3-----0-------------------|
E|------------3T------------------------------------------------------|

e|--------------------------------------------------------------------|
B|----3-------3---------0---------3----------------3------------------|
G|----0-------4---------0---------2-----------11+--0------------------|
D|----2-------0---------2----0----4--------12+-----2------------------|
A|----3-----------------2---------5---5/12---------3------------------|
E|------------3T------------------------------------------------------|


VERSE
e|--------------------------------------------------------------------|
B|----3-------3---------0---------3---------3-------------------------|
G|----0-------4---------0---------2---------0-------------------------|
D|----2-------0---------2----0----4---------2-------------------------|
A|----3-----------------2---------5----0----3-----0-------------------|
E|------------3T------------------------------------------------------|

e|--------------------------------------------------------------------|
B|----3-------3--------0---------3---------3--------------------------|
G|----0-------4--------0---------2---------0--------------------------|
D|----2-------0--------2----0----4---------2--------------------------|
A|----3----------------2---------5----0----3--------------------------|
E|------------3T---------------------------------xx10\5---------------|


CHORUS
e|--------------------------------------------0-----0-----------------|
B|------3--3--------3--3---0-0-------3-----3--3--3--3---3-3-----------|
G|----0-0-------0---4--4---0-0-------2-----2-----2------0-0-----------|
D|------2----0h2----0--0---2-2-------4-----4-----4------2-2-----------|
A|----3--------------------2---------5----5------------3--3-----------|
E|------------------3T-3T---------------------------------------------|

e|-----------------------------------------2--0-----0-----------------|
B|------3--3--------3--3---0-0-------3-----3--3---3-3-----------------|
G|----0-0-------0---4--4---0-0-------2-----2--2---2-------------------|
D|------2----0h2----0--0---2-2-------4-----4--4---4-------------------|
A|----3--------------------2---------5----5-------5-------------------|
E|------------------3T-3T---------------------------------------------|

e|----0---------------------------------------------------------------|
B|----1-0-3----------3--3----0--0-------1-0-3----------------3--------|
G|----0-0-0-0h2-0----4--4----0--0---0---2-0-0-----0--0--0----0---0----| X2
D|----2--------------0--0----2--2-------0-----0h2----2--2----2--------|
A|----3----------------------2----------3------------3--3---3---------|
E|-------------------3T-----------------------------------------------|


BRIDGE
e|----------------7------3---3-2---2---2-0-----------------------------|
B|----3----3--3--------0----0--3---3---3-3----3p1p0--------------------|
G|----0---0--0-----------------2--2---2-----0------2-0-----------------|
D|-----------------------------0-0---0---------------------------------|
A|----3--3--3---0------------------------3-3---------------------------|
E|----------------3T-3T--0-0-------------------------------------------|

e|----------------7------3---3-2-2-2-2-2-2-X---------------------------|
B|----3----3--3--------0----0--3-3-3-3-3-3-X-3-3-3-3-3-----------------|
G|----0---0--0-----------------2-2-2-2-2-2-X-0-0-0-0-0-----------------|
D|-----------------------------0-0-0-0-0-0-X-2-2-2-2-2-----------------|
A|----3--3--3---0--------------------------X-3-3-3-3-3-----------------|
E|----------------3T-3T--0-0---------------X---------------------------|


CHORUS
e|----0----------------------------------------------------------------|
B|----1-0-3----------3--3----0--0-------1-0-3----------------3---------|
G|----0-0-0-0h2-0----4--4----0--0---0---2-0-0-----0--0--0----0---0-----| X4
D|----2--------------0--0----2--2-------0-----0h2----2--2----2---------|
A|----3----------------------2----------3------------3--3---3----------|
E|-------------------3T------------------------------------------------|

END W/
e|---------------------------------------------------------------------|
B|----3-3-3-3----------------------------------------------------------|
G|----0-0-0-0----------------------------------------------------------|
D|----2-2-2-2----------------------------------------------------------|
A|----3-3-3-3----------------------------------------------------------|
E|---------------------------------------------------------------------|            
Submit corrections


        What Do You Mean  lessons Hard to play? Try these video lessons and learn fast What Do You Mean  lessons
        
↑ Back to top | Tablatures and chords for acoustic guitar and electric guitar, ukulele, drums are parodies/interpretations of the original songs. You may use it for private study, scholarship, research or language learning purposes only