» » »

Justin Bieber - What Do You Mean Tabs

Artists:  A B C D E F G H I J K L M N O P Q R S T U V W X Y Z # 

What Do You Mean Tabs

(ver. 1) Click to play this song!
Justin Bieber
 Rating:
4/5 (1 vote)

 What Do You Mean  lessons Tabs too difficult? Try these video lessons and learn fast
 
                Corresponds to lyrics
e|------------------------------------------------------------------------------|
B|-----1-------1---11---------1-2-4----------1-------------1-----1---4-1--------|
G|-1-3---1-------3----3---1-3-------3----1-3---3-1-3---1-3---1-----3------------|
D|------------------------------------------------------------------------------|
A|------------------------------------------------------------------------------|
E|------------------------------------------------------------------------------|

e|------------------------------------------------------------------------------|
B|-------1-------------4-2-1-----------1----------------------------------------|
G|---1-3---3-1-3---1-3-------3-----1-3---1--------------------------------------|
D|-3----------------------------------------------------------------------------|
A|------------------------------------------------------------------------------|
E|------------------------------------------------------------------------------|


Fingerstyle

e|----------------------------2-----2-0-------0---------------------------------|
B|----3-------------0--0---------3-------3--0---------0---3---------------------|
G|--0---2----2--0-3-0------2----------------------0-------0---------------------|
D|--------2--0----0-2----2----0--0-------2----------2---------------------------|
A|--3-3-------------------------------------3---3-------3-3--2------------------|
E|--------------3-3-0-----------------------------------------------------------|            
Submit corrections


        What Do You Mean  lessons Hard to play? Try these video lessons and learn fast What Do You Mean  lessons
        
↑ Back to top | Tablatures and chords for acoustic guitar and electric guitar, ukulele, drums are parodies/interpretations of the original songs. You may use it for private study, scholarship, research or language learning purposes only