» » »

Justin Bieber - Sorry Tabs

Artists:  A B C D E F G H I J K L M N O P Q R S T U V W X Y Z # 

Sorry Tabs

(ver. 2) Click to play this song!
Justin Bieber
 Rating:
2.1/5 (30 votes)

 Sorry  lessons Tabs too difficult? Try these video lessons and learn fast
 
                INTRO (X2)                                  (strum)
F#|---x--------------------0-------------------0---------------------------------------|
D |---0-----------0h2------0----------0h2------0---------------------------------------|
A |---0-----0h2------------0----0h2------------0---------------------------------------|
D |---0--------------------4-------------------2---------------------------------------|
A |---0--------------------2-------------------0---------------------------------------|
E |---3--------------------x-------------------x---------------------------------------|


VERSE - listen to video for strumming pattern
F#|---x---------0--------x-------------------------------------------------------------|
D |---0---------0--------0-------------------------------------------------------------|
A |---0---------0--------0-----0--------0----0-----------------------------------------|
D |---0---------4--------2-----2/4----4\2----0-----------------------------------------|
A |---0---------2--------0-----0--------0----0-----------------------------------------|
E |---3---------x--------x-------------------------------------------------------------|

F#|---x---------0--------x--------------x-------0------x-------------------------------|
D |---0---------0--------0--------------0-------0------0-------------------------------|
A |---0---------0--------0--------------0-------0------0-----0-----0-----0-------------|
D |---0---------4--------2--------------0-------4------2-----2/4---4\2---0-------------|
A |---0---------2--------0--------------0-------2------0-----0-----0-----0-------------|
E |---3---------x--------x--------------3-------x------x-------------------------------|

F#|---x---------0--------x-------------------------------------------------------------|
D |---0---------0--------0-------------------------------------------------------------|
A |---0---------0--------0-----0-------------------------------------------------------|
D |---0---------4--------2-----2h4---4p2---2p0-----------------------------------------|
A |---0---------2--------0-----0----------------2p0------------------------------------|
E |---3---------x--------x-------------------------------------------------------------|

F#|---x---------0--------x-------------------------------------------------------------|
D |---0---------0--------0-------------------------------------------------------------|
A |---0---------0--------0-----0--------0----0-----------------------------------------|
D |---0---------4--------2-----2/4----4\2----0-----------------------------------------|
A |---0---------2--------0-----0--------0----0-----------------------------------------|
E |---3---------x--------x-------------------------------------------------------------|

F#|---x---------0--------x-------------------------------------------------------------|
D |---0---------0--------0---------------0---2-----------------------------------------|
A |---0---------0--------0-----4p0----4----4-------------------------------------------|
D |---0---------4--------2-------------------------------------------------------------|
A |---0---------2--------0-------------------------------------------------------------|
E |---3---------x--------x-------------------------------------------------------------|

F#|---x---------0--------x-------------------------------------------------------------|
D |---0---------0--------0-------------------------------------------------------------|
A |---0---------0--------0-----0--------0----0-----------------------------------------|
D |---0---------4--------2-----2/4----4\2----0-----------------------------------------|
A |---0---------2--------0-----0--------0----0-----------------------------------------|
E |---3---------x--------x-------------------------------------------------------------|

F#|---x---------0--------x---------------12+-------------------------------------------|
D |---0---------0--------0---------------12+-------------------------------------------|
A |---0---------0--------0------0--------12+-------------------------------------------|
D |---0---------4--------2------2/11---------------------------------------------------|
A |---0---------2--------0------0-----12------12+--------------------------------------|
E |---3---------x--------x------x------------------------------------------------------|


CHORUS - strum throughout
F#|---0---------0--------0------0---------------------------------------------|
D |---0---------0--------0------2---------------------------------------------|
A |---0---------0--------0------0---------------------------------------------| X3
D |---0---------4--------2------2---------------------------------------------| 
A |---0---------2--------0------0---------------------------------------------|
E |---3---------X--------x------x---------------------------------------------|

F#|---x---------0------0------------------------------------------------------|
D |---x---------0------0------------------------------------------------------|
A |---0---------0------0------------------------------------------------------|
D |---2---------0------0------------------------------------------------------|
A |---2---------0------0------------------------------------------------------|
E |---0---------3------5------------------------------------------------------|

F#|---x--------------------0-------------------0------------------------------|
D |---0-----------0h2------0----------0h2------0------------------------------|
A |---0-----0h2------------0----0h2------------0-----0------0------0----------| X2
D |---0--------------------4-------------------2-----2/4----4\2----0----------|
A |---0--------------------2-------------------0-----0------0------0----------|
E |---3--------------------x-------------------x------------------------------|


VERSE 2
F#|---x---------0--------x-------------------------------------------------------------|
D |---0---------0--------0-------------------------------------------------------------|
A |---0---------0--------0-----0--------0----0-----------------------------------------|
D |---0---------4--------2-----2/4----4\2----0-----------------------------------------|
A |---0---------2--------0-----0--------0----0-----------------------------------------|
E |---3---------x--------x-------------------------------------------------------------|

F#|---x---------0--------x--------------x-------0------x-------------------------------|
D |---0---------0--------0--------------0-------0------0-------------------------------|
A |---0---------0--------0--------------0-------0------0-----0-----0-----0-------------|
D |---0---------4--------2--------------0-------4------2-----2/4---4\2---0-------------|
A |---0---------2--------0--------------0-------2------0-----0-----0-----0-------------|
E |---3---------x--------x--------------3-------x------x-------------------------------|

F#|---x---------0--------x-------------------------------------------------------------|
D |---0---------0--------0-------------------------------------------------------------|
A |---0---------0--------0-----0--------0----0-----------------------------------------|
D |---0---------4--------2-----2/4----4\2----0-----------------------------------------|
A |---0---------2--------0-----0--------0----0-----------------------------------------|
E |---3---------x--------x-------------------------------------------------------------|


CHORUS 2 - strum throughout
F#|---0---------0--------0------0---------------------------------------------|
D |---0---------0--------0------2---------------------------------------------|
A |---0---------0--------0------0---------------------------------------------| X3
D |---0---------4--------2------2---------------------------------------------| 
A |---0---------2--------0------0---------------------------------------------|
E |---3---------X--------x------x---------------------------------------------|

F#|---x---------0------0------------------------------------------------------|
D |---x---------0------0------------------------------------------------------|
A |---0---------0------0------------------------------------------------------|
D |---2---------0------0------------------------------------------------------|
A |---2---------0------0------------------------------------------------------|
E |---0---------3------5------------------------------------------------------|

F#|---0---------0--------0------0---------------------------------------------|
D |---0---------0--------0------2---------------------------------------------|
A |---0---------0--------0------0---------------------------------------------| X3
D |---0---------4--------2------2---------------------------------------------| 
A |---0---------2--------0------0---------------------------------------------|
E |---3---------X--------x------x---------------------------------------------|

F#|---x---------0------0------------------------------------------------------|
D |---x---------0------0------------------------------------------------------|
A |---0---------0------0------------------------------------------------------|
D |---2---------0------0------------------------------------------------------|
A |---2---------0------0------------------------------------------------------|
E |---0---------3------5------------------------------------------------------|


OUTRO (X2)
F#|---x--------------------0-------------------0------------------------------|
D |---0-----------0h2------0----------0h2------0------------------------------|
A |---0-----0h2------------0----0h2------------0-----0------0------0----------| X3
D |---0--------------------4-------------------2-----2/4----4\2----0----------|
A |---0--------------------2-------------------0-----0------0------0----------|
E |---3--------------------x-------------------x------------------------------|

F#|---x---------0------0------------------------------------------------------|
D |---x---------0------0------------------------------------------------------|
A |---0---------0------0------------------------------------------------------|
D |---2---------0------0------------------------------------------------------|
A |---2---------0------0------------------------------------------------------|
E |---0---------3------5------------------------------------------------------|

(End w/)
F#|---x-----------------------------------------------------------------------|
D |---0-----------------------------------------------------------------------|
A |---0-----------------------------------------------------------------------|
D |---0-----------------------------------------------------------------------|
A |---0-----------------------------------------------------------------------|
E |---3-----------------------------------------------------------------------|
            
Submit corrections


        Sorry  lessons Hard to play? Try these video lessons and learn fast Sorry  lessons
        
↑ Back to top | Tablatures and chords for acoustic guitar and electric guitar, ukulele, drums are parodies/interpretations of the original songs. You may use it for private study, scholarship, research or language learning purposes only