» » »

Justin Bieber - Sorry Tabs

Artists:  A B C D E F G H I J K L M N O P Q R S T U V W X Y Z # 

Sorry Tabs

(ver. 3) Click to play this song!
Justin Bieber
 Rating:
4.4/5 (12 votes)

 Sorry  lessons Tabs too difficult? Try these video lessons and learn fast
 
                e|--------------------------------------------------------------------------|
B|--------------------------------------------------------------------------|
G|-----1----3-----3---3---0---1----3---3--3---3--1---0----------------------|
D|-------------------------------------------------------3----3----3/5------|
A|--------------------------------------------------------------------------|
E|--------------------------------------------------------------------------|
You gotta go and get angry at all of my honesty

e|--------------------------------------------------------------------------|
B|--------------------------------------------------------------------------|
G|-----1----3-----3---3---0---1----3---3--3---3--1---0----------------------|
D|-------------------------------------------------------3----3----3/5------|
A|--------------------------------------------------------------------------|
E|--------------------------------------------------------------------------|
You know I try but I don't do well with apologies

e|--------------------------------------------------------------------------|
B|--------------------------------------------------------------------------|
G|-----1----3-----3---3---0---1----3---3--3---3--1---0----------------------|
D|-------------------------------------------------------3----3----3/5------|
A|--------------------------------------------------------------------------|
E|--------------------------------------------------------------------------|
I hope I don't run out of time could someone call the referee?

e|--------------------------------------------------------------------------|
B|--------------------------------------------------------------------------|
G|-------------------0---------1---0------0------1------0-------------------|
D|---------1---3----------1-----------------------------------3-------------|
A|--------------------------------------------------------------------------|
E|--------------------------------------------------------------------------|
Cause I don't need one more shot at forgiveness.

e|--------------------------------------------------------------------------|
B|--------------------------------------------------------------------------|
G|-----1----3-----3---3---0---1----3---3--3---3--1---0----------------------|
D|-------------------------------------------------------3----3----3/5------|
A|--------------------------------------------------------------------------|
E|--------------------------------------------------------------------------|
I know you know that I made those mistakes maybe once or twice

e|--------------------------------------------------------------------------|
B|--------------------------------------------------------------------------|
G|-----1----3-----3---3---0---1----3---3--3---3--1---0----------------------|
D|-------------------------------------------------------3----3----3/5------|
A|--------------------------------------------------------------------------|
E|--------------------------------------------------------------------------|
By once or twice I mean maybe a couple of hundred times

e|--------------------------------------------------------------------------|
B|--------------------------------------------------------------------------|
G|-----1----3-----3---3---0---1----3---3--3---3--1---0----------------------|
D|-------------------------------------------------------3----3----3/5------|
A|--------------------------------------------------------------------------|
E|--------------------------------------------------------------------------|
Let me oh let me redeem oh redeem oh myself tonight

e|--------------------------------------------------------------------------|
B|--------------------------------------------------------------------------|
G|-------------------0---------1---0------0------1------0-------------------|
D|---------1---3----------1-----------------------------------3-------------|
A|--------------------------------------------------------------------------|
E|--------------------------------------------------------------------------|
Cause I don't need one more shot at second chances.

e|-------------------------------------------------3------------------------|
B|---------4-----4----4----4------------4------6----------------------------|
G|----5----------------------------3----------------------------------------|
D|--------------------------------------------------------------------------|
A|--------------------------------------------------------------------------|
E|--------------------------------------------------------------------------|
Is it too late now to say sorry?

e|--------------------------------------------------------------------------|
B|---------4-----4----4----4------------4-----------------------------------|
G|----5----------------------------5----------5----3------------------------|
D|--------------------------------------------------------------------------|
A|--------------------------------------------------------------------------|
E|--------------------------------------------------------------------------|
Cause I'm missing more than just your body


e|-------------------------------------------------3------------------------|
B|---------4-----4----4----4------------4------6----------------------------|
G|----5----------------------------3----------------------------------------|
D|--------------------------------------------------------------------------|
A|--------------------------------------------------------------------------|
E|--------------------------------------------------------------------------|
Is it too late now to say sorry?


e|----------3-----6------3--------------------3-----------------------------|
B|-----6------------------------6-------6-----------6---------4-------------|
G|-------------------------------------------------------3------------------|
D|--------------------------------------------------------------------------|
A|--------------------------------------------------------------------------|
E|--------------------------------------------------------------------------|
Yeah I know all that I let you down


e|----------6-----3----3------3------4-----3--------------------------------|
B|-----4---------------------------------------------4----------------------|
G|----------------------------------------------3---------------------------|
D|--------------------------------------------------------------------------|
A|--------------------------------------------------------------------------|
E|--------------------------------------------------------------------------|
Is it too late now to say sorry now?            
Submit corrections


        Sorry  lessons Hard to play? Try these video lessons and learn fast Sorry  lessons
        
↑ Back to top | Tablatures and chords for acoustic guitar and electric guitar, ukulele, drums are parodies/interpretations of the original songs. You may use it for private study, scholarship, research or language learning purposes only