» » »

Judas Priest - Living After Midnight Bass

Artists:  A B C D E F G H I J K L M N O P Q R S T U V W X Y Z # 

Living After Midnight Bass

(ver. 2) Click to play this song!
Judas Priest
 Rating:
4/5 (4 votes)

 Living After Midnight lessons Tabs too difficult? Try these video lessons and learn fast
 
                ----------------------------------------------------------------------------
		  LIVING AFTER MIDNIGHT- judas priest
----------------------------------------------------------------------------


Tuning:STANDARD

intro
G|-------------------------------|
D|-------------------------------|
A|-7-7---5--000--22--------------| X2
E|-------------------------------|

G|-------------------------------|
D|-------------------------------|
A|-7-7---5--000--22--22----------|
E|-------------------------------|

chorus
G|-------------------------------|
D|-------------------------------|
A|-7-7---5--000--22--------------| X2
E|-------------------------------|

G|-------------------------------|
D|-------------------------------|
A|-7-7---5--000--22--22----------|
E|-------------------------------|

verse 1
G|--------------------------------------------------|
D|--------------------------------------------------|
A|--2/777777777777777-------------------------------|
E|-----------------------3-00000000-3-00000000------|

G|--------------------------------------------------|
D|--------------------------------------------------|
A|--2/777777777777777-------------------------------|
E|-----------------------3-00000000-3-00000000------|

pre-chorus
G|-----------------------------|
D|-----------------------------|
A|----------------------2-5----|
G|----3------------2-----------|

chorus
G|-------------------------------|
D|-------------------------------|
A|-7-7---5--000--22--------------| X2
E|-------------------------------|

G|-------------------------------|
D|-------------------------------|
A|-7-7---5--000--22--22----------|
E|-------------------------------|

verse 2
G|--------------------------------------------------|
D|--------------------------------------------------|
A|--2/777777777777777-------------------------------|
E|-----------------------3-00000000-3-00000000------|

G|--------------------------------------------------|
D|--------------------------------------------------|
A|--2/777777777777777-------------------------------|
E|-----------------------3-00000000-3-00000000------|

pre-chorus
G|-----------------------------|
D|-----------------------------|
A|----------------------2-5----|
E|----3------------2-----------|

chorus
G|-------------------------------|
D|-------------------------------|
A|-7-7---5--000--22--------------| X2
E|-------------------------------|

G|-------------------------------|
D|-------------------------------|
A|-7-7---5--000--22--22----------|
E|-------------------------------|

Bridge
G|-----------------------------|
D|-----------------------------|x3
A|-----------------------------|
E|-555555555555-0000000-3-00000|

G|--------------------------|
D|--------------------------|
A|---------------2---5---2--|
E|-555555555555-------------|

guitar solo
G|-------------------------------|
D|-------------------------------|
A|-7-7---5--000--22--------------| X2
E|-------------------------------|

G|-------------------------------|
D|-------------------------------|
A|-7-7---5--000--22--22----------|
E|-------------------------------|

verse 3
G|--------------------------------------------------|
D|--------------------------------------------------|
A|--2/777777777777777-------------------------------|
E|-----------------------3-00000000-3-00000000------|

G|--------------------------------------------------|
D|--------------------------------------------------|
A|--2/777777777777777-------------------------------|
E|-----------------------3-00000000-3-00000000------|

pre-chorus
G|-----------------------------|
D|-----------------------------|
A|----------------------2-5----|
E|----3------------2-----------|

chorus
G|-------------------------------|
D|-------------------------------|
A|-7-7---5--000--22--------------| X2
E|-------------------------------|

G|-------------------------------|
D|-------------------------------|
A|-7-7---5--000--22--22----------|
E|-------------------------------|

G|-------------------------------|
D|-------------------------------|
A|-7-7---5--000--22--------------| X2
E|-------------------------------|

G|-------------------------------|
D|-------------------------------|
A|-7-7---5--000--22--22----------| fade out
E|-------------------------------|

                           please rate!
                      corrections are welcome
            
Submit corrections


        Living After Midnight lessons Hard to play? Try these video lessons and learn fast Living After Midnight lessons
        
↑ Back to top | Tablatures and chords for acoustic guitar and electric guitar, ukulele, drums are parodies/interpretations of the original songs. You may use it for private study, scholarship, research or language learning purposes only