» » »

Judas Priest - Living After Midnight Bass

Artists:  A B C D E F G H I J K L M N O P Q R S T U V W X Y Z # 

Living After Midnight Bass

(ver. 4) Click to play this song!
Judas Priest
 Rating:
4.3/5 (21 vote)

 Living After Midnight lessons Tabs too difficult? Try these video lessons and learn fast
 
                [Intro/Chorus] 
G|--r--|---------------------------------------------------------| X3
D|--e--|*--------------------------------------------------------|
A|--s--|*--------------------------------------------------------|
E|--t--|--0--0-0h23--5--5--7--7-7-7--0--0-0h23--5-5--7-7--7-7-7--|

G|--r--|---------------------------------------------------------|
D|--e--|*--------------------------------------------------------|
A|--s--|*--------------------------------------------------------|
E|--t--|--0--0-0h23--5--5--7--7-7-7--0--0-0h23--5-5--7-7--7-7-7-7| 

[Verse]
G|-------------------------------|--------------------------------| X2
D|-------------------------------|--------------------------------|
A|-------------------------------|--------------------------------|
E|0--0-0-0-0-0-0-0-0-0-0-0-0-0-0-|3b--0-0-0-0-0-0-3b--0-0-0-0-0-0-|

.................................^________________^                bend up 1/2 tone

G|-----------------------------|--------------------------------|
D|-----------------------------|--------------------------------|
A|-----------------------------|---------------2---2-2-3-3-4-5-5|
E|3--3-3-3-3-3-3-3-3-3-3-3-3-0-|3h2---2-2-2-2-2-----------------|

[Chorus]
G|--r--|---------------------------------------------------------| X3
D|--e--|*--------------------------------------------------------|
A|--s--|*--------------------------------------------------------|
E|--t--|--0--0-0h23--5--5--7--7-7-7--0--0-0h23--5-5--7-7--7-7-7--|

G|--r--|---------------------------------------------------------|
D|--e--|*--------------------------------------------------------|
A|--s--|*--------------------------------------------------------|
E|--t--|--0--0-0h23--5--5--7--7-7-7--0--0-0h23--5-5--7-7--7-7-7-7|
 
[Verse]
G|-------------------------------|--------------------------------| X2
D|-------------------------------|--------------------------------|
A|-------------------------------|--------------------------------|
E|0--0-0-0-0-0-0-0-0-0-0-0-0-0-0-|3b--0-0-0-0-0-0-3b--0-0-0-0-0-0-|

.................................^________________^                bend up 1/2 tone

G|-----------------------------|--------------------------------|
D|-----------------------------|--------------------------------|
A|-----------------------------|---------------2---2-2-3-3-4-5-5|
E|3--3-3-3-3-3-3-3-3-3-3-3-3-0-|3h2---2-2-2-2-2-----------------|

[Chorus]
G|--r--|---------------------------------------------------------| X3
D|--e--|*--------------------------------------------------------|
A|--s--|*--------------------------------------------------------|
E|--t--|--0--0-0h23--5--5--7--7-7-7--0--0-0h23--5-5--7-7--7-7-7--|

G|--r--|---------------------------------------------------------|
D|--e--|*--------------------------------------------------------|
A|--s--|*--------------------------------------------------------|
E|--t--|--0--0-0h23--5--5--7--7-7-7--0--0-0h23--5-5--7-7--7-7-7-7|

[Bridge]
G|--------------------------------|------------------------------| 3X
D|--------------------------------|-------------------------------|
A|--------------------------------|------------------------------|
E|-5--5-5-5-5-5-5--5-5-5-5-5-5-5-5|0--0--0-0-0-0--h3--0--0-0h3 0-|

G|--------------------------------|-------------------------------|
D|--------------------------------|-------------------------------|
A|--------------------------------|-----------------5-------------|
E|5---5-5-5-5-5-5--5-5-5-5-5-5-5-5|-7---------------------7---7-7-|

[Solo]
(Chorus 2x)
G|--r--|---------------------------------------------------------| X3
D|--e--|*--------------------------------------------------------|
A|--s--|*--------------------------------------------------------|
E|--t--|--0--0-0h23--5--5--7--7-7-7--0--0-0h23--5-5--7-7--7-7-7--|

G|--r--|---------------------------------------------------------|
D|--e--|*--------------------------------------------------------|
A|--s--|*--------------------------------------------------------|
E|--t--|--0--0-0h23--5--5--7--7-7-7--0--0-0h23--5-5--7-7--7-7-7-7|

[Verse]
G|-------------------------------|--------------------------------| X2
D|-------------------------------|--------------------------------|
A|-------------------------------|--------------------------------|
E|0--0-0-0-0-0-0-0-0-0-0-0-0-0-0-|3b--0-0-0-0-0-0-3b--0-0-0-0-0-0-|

.................................^________________^                bend up 1/2 tone

G|-----------------------------|--------------------------------|
D|-----------------------------|--------------------------------|
A|-----------------------------|---------------2---2-2-3-3-4-5-5|
E|3--3-3-3-3-3-3-3-3-3-3-3-3-0-|3h2---2-2-2-2-2-----------------|

[Chorus]
G|--r--|---------------------------------------------------------| X3
D|--e--|*--------------------------------------------------------|
A|--s--|*--------------------------------------------------------|
E|--t--|--0--0-0h23--5--5--7--7-7-7--0--0-0h23--5-5--7-7--7-7-7--|

G|--r--|---------------------------------------------------------|
D|--e--|*--------------------------------------------------------|
A|--s--|*--------------------------------------------------------|
E|--t--|--0--0-0h23--5--5--7--7-7-7--0--0-0h23--5-5--7-7--7-7-7-7|
            
Submit corrections


        Living After Midnight lessons Hard to play? Try these video lessons and learn fast Living After Midnight lessons
        
↑ Back to top | Tablatures and chords for acoustic guitar and electric guitar, ukulele, drums are parodies/interpretations of the original songs. You may use it for private study, scholarship, research or language learning purposes only