» » »

Judas Priest - Exciter Tabs

Artists:  A B C D E F G H I J K L M N O P Q R S T U V W X Y Z # 

Exciter Tabs

(ver. 1) Click to play this song!
Judas Priest
 Rating:
4/5 (4 votes)

 Exciter lessons Tabs too difficult? Try these video lessons and learn fast
 
                Hope you like it enjoy !!
E---||---------------------|-----------------|-----------------|-------- 
B---||---------------------|-----------------|-----------------|-------- 
G---||*--------------------|--------3--------|-----------------|-------- 
D---||*--5-----3--5--5--5--|-----5-----5--5--|--5-----3--5--5--|--5----- 
A---||---------------------|-----------------|-----------------|-------- 
E---||------3--------------|--3--------------|-----3-----------|-------- 


E------------------|--------------------|-----------------|------------- 
B------------------|--------------------|-----------------|------------- 
G------------------|--------------------|--------3--------|------------- 
D---p3--3----------|--5-----3--5--5--5--|-----5-----5--5--|--5-----3---- 
A----------5p3-----|--------------------|-----------------|------------- 
E---------------3--|-----3--------------|--3--------------|-----3------- 

Verse 


E---------|------------------|------||--||------------------------------ 
B---------|------------------|------||--||------------------------------ 
G---------|------------------|--7--*||--||*----------------------------- 
D---5--5--|--5p3-------------|--7--*||--||*----------------------------- 
A---------|-------5--5p3-----|--5---||--||------------------------------ 
E---------|---------------3--|--5---||--||---3--3--3--3--3--3--3--3----- 

3x 


E----||--||---------------|--------------------------|------------------ 
B----||--||---------------|--------------------------|------------------ 
G---*||--||*--------------|--------------------------|------------------ 
D---*||--||*-----3-----3--|--------------------------|------------------ 
A----||--||---------------|--------------------------|------------------ 
E----||--||---1-----1-----|--3--3--3--3--3--3--3--3--|--3--3--3--3------ 


E---------------|--------------------------|--------------|--||--------- 
B---------------|--------------------------|--------------|--||--------- 
G---------------|--------------------------|--------3--5--|--||*-------- 
D---------------|--------------------------|--------3--5--|--||*-------- 
A---------------|--------------------------|--------------|--||--------- 
E---1--1--2--2--|--3--3--3--3--3--3--3--3--|-----1--------|--||---3----- 

3x 


E-------------------------||--||---------------|------------------------ 
B-------------------------||--||---------------|------------------------ 
G------------------------*||--||*--------------|------------------------ 
D------------------------*||--||*-----3-----3--|------------------------ 
A-------------------------||--||---------------|------------------------ 
E---3--3--3--3--3--3--3---||--||---1-----1-----|--3--3--3--3--3--3------ 


E---------|--------------------------|--------------------------|------- 
B---------|--------------------------|--------------------------|------- 
G---------|--------------------------|--------------------------|------- 
D---------|--------------------------|--------------------------|------- 
A---------|--------------------------|--------------------------|------- 
E---3--3--|--3--3--3--3--1--1--2--2--|--3--3--3--3--3--3--3--3--|------- 

Chorus 3x 


E-------------||--||----------------------------||--||------------------ 
B-------------||--||----------------------------||--||------------------ 
G------3--5--*||--||*--------------------------*||--||*----------------- 
D------3--5--*||--||*--7--7--7--7--7--7--7--7--*||--||*--7--7--7--7----- 
A-------------||--||---0--0--0--0--0--0--0--0---||--||---0--0--0--0----- 
E---1---------||--||----------------------------||--||------------------ 


E---------|--------------------------|--------------------------|------- 
B---------|--------------------------|--------------------------|------- 
G---5--7--|--------------------------|--------------------------|------- 
D---5--7--|--7--7--7--7--7--7--7--7--|--7--7--7--7--7--7--7--7--|--7---- 
A---------|--0--0--0--0--0--0--0--0--|--0--0--0--0--0--0--0--0--|--0---- 
E---------|--------------------------|--------------------------|------- 

3x 


E---------------|--------------|--||----------------------------||------ 
B---------------|--------------|--||----------------------------||------ 
G------------5--|-----5--------|--||*--------------------------*||------ 
D---7-----7--5--|--7--5-----7--|--||*--7--7--7--7--7--7--7--7--*||------ 
A---0-----0-----|--0--------0--|--||---0--0--0--0--0--0--0--0---||------ 
E---------------|--------------|--||----------------------------||------ 


E---||---------------------|--------------------------|----------------- 
B---||---------------------|--------------------------|----------------- 
G---||*--------------5--7--|--------------------------|----------------- 
D---||*--7--7--7--7--5--7--|--7--7--7--7--7--7--7--7--|--7--7--7--7----- 
A---||---0--0--0--0--------|--0--0--0--0--0--0--0--0--|--0--0--0--0----- 
E---||---------------------|--------------------------|----------------- 

Verse 


E---------------|-----------|------------||--||-------------||--||------ 
B---------------|-----------|------------||--||-------------||--||------ 
G---------------|--7--6--5--|-----------*||--||*-----------*||--||*----- 
D---7--7--7--7--|--7--6--5--|-----------*||--||*-----------*||--||*----- 
A---0--0--0--0--|--5--4--3--|--0---------||--||-------------||--||------ 
E---------------|-----------|--------4---||--||-------------||--||------ 

Chorus 3x 


E----------------------------||--||---------------------|--------------- 
B----------------------------||--||---------------------|--------------- 
G---------------------------*||--||*--------------5--7--|--------------- 
D---7--7--7--7--7--7--7--7--*||--||*--7--7--7--7--5--7--|--7--7--7------ 
A---0--0--0--0--0--0--0--0---||--||---0--0--0--0--------|--0--0--0------ 
E----------------------------||--||---------------------|--------------- 


E------------------|--------------------------|-----------------|------- 
B------------------|--------------------------|-----------------|------- 
G------------------|--------------------------|--------------5--|------- 
D---7--7--7--7--7--|--7--7--7--7--7--7--7--7--|--7--7-----7--5--|--7---- 
A---0--0--0--0--0--|--0--0--0--0--0--0--0--0--|--0--0-----0-----|--0---- 
E------------------|--------------------------|-----------------|------- 

3x 


E------------|--||----------------------------||--||-------------------- 
B------------|--||----------------------------||--||-------------------- 
G---5--------|--||*--------------------------*||--||*--------------5---- 
D---5-----7--|--||*--7--7--7--7--7--7--7--7--*||--||*--7--7--7--7--5---- 
A---------0--|--||---0--0--0--0--0--0--0--0---||--||---0--0--0--0------- 
E------------|--||----------------------------||--||-------------------- 


E------|--------------------------|--------------------------|-----|---- 
B------|--------------------------|--------------------------|-----|---- 
G---7--|--------------------------|--------------------------|--9--|---- 
D---7--|--7--7--7--7--7--7--7--7--|--------------------------|--9--|---- 
A------|--0--0--0--0--0--0--0--0--|--5--5--5--5--5--5--5--5--|--7--|---- 
E------|--------------------------|--------------------------|--0--|---- 

(solo) 


E-------||--||---------------------------|------------------------------ 
B-------||--||---------------------------|------------------------------ 
G------*||--||*--------------------------|------------------------------ 
D---4--*||--||*--------------------------|------------------------------ 
A---4---||--||---2--2--2--2--2--2--2--2--|--2--2--2--2--0--0--1--------- 
E---2---||--||---------------------------|------------------------------ 

repeat Verse II 


E-------||--||---------------|---------------||--||--------------------- 
B-------||--||---------------|---------------||--||--------------------- 
G------*||--||*--------------|--------------*||--||*-------------------- 
D------*||--||*-----0--1--2--|--0--2--3--4--*||--||*--------7----------- 
A---1---||--||---2-----------|---------------||--||---0--0-------------- 
E-------||--||---------------|---------------||--||--------------------- 


(play verse II 2 times) 


E------------------|-----------------------|---------------------------- 
B------------------|-----------------------|---------------------------- 
G------------------|--------------------5--|---------------------------- 
D---------7--------|--7-----------5--7-----|--------7--------7---------- 
A---0--0-----0--0--|-----0--0--0-----------|--0--0-----0--0-----0--0---- 
E------------------|-----------------------|---------------------------- 


E---|------------------------|--------------------------|--------------- 
B---|------------------------|--------------------------|--------------- 
G---|--------------5p0--2p0--|--------------------------|--------------- 
D---|--7---------------------|--------7--------7--------|--7------------ 
A---|-----0--0--0------------|--0--0-----0--0-----0--0--|-----0--0------ 
E---|------------------------|--------------------------|--------------- 


E---------------|--------------------------|---------------------------- 
B---------------|--------------------------|---------------------------- 
G---------------|--------------------------|--------------5p0--2p0------ 
D------5--7--5--|--------7--------7--------|--7------------------------- 
A---0-----------|--0--0-----0--0-----0--0--|-----0--0--0---------------- 
E---------------|--------------------------|---------------------------- 


E----||--||---------|-----------|--------|--------------|-----|--------- 
B----||--||---------|-----------|--------|--------------|-----|--------- 
G---*||--||*--------|-----------|--------|--------------|-----|--9------ 
D---*||--||*--7--7--|--8--8--8--|--9--9--|--10--10--10--|--7--|--9------ 
A----||--||---------|-----------|--------|--------------|--7--|--7------ 
E----||--||---------|-----------|--------|--------------|--5--|--------- 


E---|-----|-----|-----|-----|-----|-----|-----|------||--||------------- 
B---|-----|-----|-----|-----|-----|-----|-----|------||--||------------- 
G---|-----|--7--|-----|--5--|--8--|--5--|--7--|--7--*||--||*------------ 
D---|--5--|--7--|--3--|--5--|--8--|--5--|--7--|--7--*||--||*--5--------- 
A---|--5--|--5--|--3--|--3--|--6--|--3--|--5--|--5---||--||------------- 
E---|--3--|-----|--1--|-----|--6--|-----|--5--|--5---||--||------3------ 


E---------------|-----------------|-----------------|------------------- 
B---------------|-----------------|-----------------|------------------- 
G---------------|--------3--------|-----------------|------------------- 
D---3--5--5--5--|-----5-----5--5--|--5-----3--5--5--|--5p3--3----------- 
A---------------|-----------------|-----------------|----------5p3------ 
E---------------|--3--------------|-----3-----------|------------------- 


E------|--------------------|-----------------|-----------------|------- 
B------|--------------------|-----------------|-----------------|------- 
G------|--------------------|--------3--------|-----------------|------- 
D------|--5-----3--5--5--5--|-----5-----5--5--|--5-----3--5--5--|--5---- 
A------|--------------------|-----------------|-----------------|------- 
E---3--|-----3--------------|--3--------------|-----3-----------|------- 


E------------------|------||--||---------------------------------------- 
B------------------|------||--||---------------------------------------- 
G------------------|--7--*||--||*--------------------------------------- 
D---p3-------------|--7--*||--||*--------------------------------------- 
A-------5--5p3-----|--5---||--||---------------------------------------- 
E---------------3--|--5---||--||---------------------------------------- 
FreakMen
            
Submit corrections


        Exciter lessons Hard to play? Try these video lessons and learn fast Exciter lessons
        
↑ Back to top | Tablatures and chords for acoustic guitar and electric guitar, ukulele, drums are parodies/interpretations of the original songs. You may use it for private study, scholarship, research or language learning purposes only