» » »

Judas Priest - Dragonaut Tabs

Artists:  A B C D E F G H I J K L M N O P Q R S T U V W X Y Z # 

Dragonaut Tabs

(ver. 3) Click to play this song!
Judas Priest
 Rating:
3.7/5 (21 vote)

 Dragonaut  lessons Tabs too difficult? Try these video lessons and learn fast
 
                e|-----------------------------------|
B|-----------------------------------|
G|-----------------------------------|
D|---------------------2-------------|
A|--5--7--8--7---5--7--2-------------|
E|--3--5--6--5---3--5-------play 3x -|

e|--------------------------------------------------------------------------------------|
B|--------------------------------------------------------------------------------------|
G|--------------------------------------------------------------------------------------|
D|-----------------2--------------------------------------------------------------------|
A|-5--7--8-7--5--7---2---5-7------------------------------------------------------------|
E|-3--5--6-5--3--5----------------------------------------------------------------------|            
Submit corrections


        Dragonaut  lessons Hard to play? Try these video lessons and learn fast Dragonaut  lessons
        
↑ Back to top | Tablatures and chords for acoustic guitar and electric guitar, ukulele, drums are parodies/interpretations of the original songs. You may use it for private study, scholarship, research or language learning purposes only