» » »

Judas Priest - Dragonaut Tabs

Artists:  A B C D E F G H I J K L M N O P Q R S T U V W X Y Z # 

Dragonaut Tabs

(ver. 2) Click to play this song!
Judas Priest
 Rating:
4/5 (4 votes)

 Dragonaut  lessons Tabs too difficult? Try these video lessons and learn fast
 
                Tuning:standard

e|---t---t------t----------15-----------12-13-15-13-12h13p12--12-------------|
B|-8h10-10h12-12h13-13-15b17hold--15b17--------------------15--15-13-12h13---|
G|---------------------------------------------------------------------------|
D|---------------------------------------------------------------------------|
A|---------------------------------------------------------------------------|
E|---------------------------------------------------------------------------|

e|---------------------------------------------------------------------------|
B|-12--12--------------------------------------------------------------------|
G|---14--14p12h14p12---------------------------------------9h10p9--9---------|
D|------------------15-14-12--------------12-14-15-12-14-15------12--12-10-12|
A|--------------------------15-14-12-14-15-----------------------------------|
E|---------------------------------------------------------------------------|

e|---------------------------------15------15--------------15-----15b17-18b20|
B|---------------------------12-13---12-13-----------12-13---12-13-----------|
G|--10-9h10p9-7h9p7--7-----------------------13-12---------------------------|
D----------------------------------------------------------------------------|
A|---------------------------------------------------------------------------|
E|---------------------------------------------------------------------------|

e|--18b20p18h20p18--20b22-20b22--22b24holdddd--------------------------------|
B|---------------------------------------------------------------------------|
G|---------------------------------------------------------------------------|
D|---------------------------------------------------------------------------|
A|---------------------------------------------------------------------------|
E|---------------------------------------------------------------------------|
This is all taps.
e|---------------------------------------------------------------------------|
B|---t--------t--------t--------t--------t-------t-------t-------t-----------|
G|--16-9-12--17-9-12--14-7-11--14-8-11--12-6-9--11-6-9--11-4-8--14-8-11------|
D|---------------------------------------------------------------------------|
A|---------------------------------------------------------------------------|
E|---------------------------------------------------------------------------|
Repeat taps then ? Hard to hear Last few taps,may need tweaking.
e|---------------------------------------------------------------------------|
B|--t------------------------------------------------------------------------|
G|--11-4-5--t----------------------------------------------------------------|
D|----------11-4-5-----------------------------------------------------------|
A|-----------------7-5-5-----------------------------------------------------|
E|--------------------/harmonic----------------------------------------------|

e|---------------------------------------------------------------------------|
B|---------------------------------------------------------------------------|
G|--notes;correct intro part for rhythm part on this song--------------------|
D|---------------------------------------------------------------------------|
A|--------------7------5------7------5--7-5------7-----5-----7---5-7-5-------|
E|---------0--7---0--5---0--7---0--5--------0-7----0-5---0-7---5-------------|            
Submit corrections


        Dragonaut  lessons Hard to play? Try these video lessons and learn fast Dragonaut  lessons
        
↑ Back to top | Tablatures and chords for acoustic guitar and electric guitar, ukulele, drums are parodies/interpretations of the original songs. You may use it for private study, scholarship, research or language learning purposes only