» » »

Josie And The Pussycats - 3 Small Words Tabs

Artists:  A B C D E F G H I J K L M N O P Q R S T U V W X Y Z # 

3 Small Words Tabs

(ver. 3) Click to play this song!
Josie And The Pussycats
 Rating:
4/5 (4 votes)

 3 Small Words lessons Tabs too difficult? Try these video lessons and learn fast
 
                Tuning: Standard


Intro: (x2)
e|-----------------|
b|-----------------|
g|-9----9-9--------|
d|-9----x-9-9----7-|
a|-7----7-7-9----7-|
e|----------7----5-|
  PM...............


Verse (x2)
-9-9-9-9-9-9-9-9----------------------------------------------------
-9-9-9-9-9-9-9-9--9-9-9-9-9-9-9-9--7-7-7-7-7-7-7-7--4-4-4-4-4-4-4-4-
-7-7-7-7-7-7-7-7--9-9-9-9-9-9-9-9--7-7-7-7-7-7-7-7--4-4-4-4-4-4-4-4-
------------------7-7-7-7-7-7-7-7--5-5-5-5-5-5-5-5--2-2-2-2-2-2-2-2-

Chorus: (x2)
e|-------------------------------------------------------|
b|-------------------------------------------------------|
g|-9-9-9-9-9-9-------------------------------------------|
d|-9-9-9-9-9-9--9-9-9-9-9-9--11-11-11-11-11--7-7-7-7-7-7-|
a|-7-7-7-7-7-7--9-9-9-9-9-9--11-11-11-11-11--7-7-7-7-7-7-|
e|--------------7-7-7-7-7-7--9--9---9--9--9--5-5-5-5-5-5-|

e|-----------------------------------------------|
b|-----------------------------------------------|
g|-9-9-9-9-9-9-----------------------------------|
d|-9-9-9-9-9-9--9-9-9-9-9-9--x-x-7--x-x-7--x-x-7-|
a|-7-7-7-7-7-7--9-9-9-9-9-9--x-x-7--x-x-7--x-x-7-|
e|--------------7-7-7-7-7-7--x-x-5--x-x-5--x-x-5-|

Bridge:
e|-----------------|
b|-----------------|
g|-9----9-9--------|
d|-9----x-9-9----7-|
a|-7----7-7-9----7-|
e|----------7----5-|
  PM...............


Verse (x2)
-9-9-9-9-9-9-9-9----------------------------------------------------
-9-9-9-9-9-9-9-9--9-9-9-9-9-9-9-9--7-7-7-7-7-7-7-7--4-4-4-4-4-4-4-4-
-7-7-7-7-7-7-7-7--9-9-9-9-9-9-9-9--7-7-7-7-7-7-7-7--4-4-4-4-4-4-4-4-
------------------7-7-7-7-7-7-7-7--5-5-5-5-5-5-5-5--2-2-2-2-2-2-2-2-

Chorus:
e|-------------------------------------------------------|
b|-------------------------------------------------------|
g|-9-9-9-9-9-9-------------------------------------------|
d|-9-9-9-9-9-9--9-9-9-9-9-9--11-11-11-11-11--7-7-7-7-7-7-|
a|-7-7-7-7-7-7--9-9-9-9-9-9--11-11-11-11-11--7-7-7-7-7-7-|
e|--------------7-7-7-7-7-7--9--9---9--9--9--5-5-5-5-5-5-|

e|-----------------------------------------------|
b|-----------------------------------------------|
g|-9-9-9-9-9-9-----------------------------------|
d|-9-9-9-9-9-9--9-9-9-9-9-9--x-x-7--x-x-7--x-x-7-|
a|-7-7-7-7-7-7--9-9-9-9-9-9--x-x-7--x-x-7--x-x-7-|
e|--------------7-7-7-7-7-7--x-x-5--x-x-5--x-x-5-|

e|-------------------------------------------------------|
b|-------------------------------------------------------|
g|-9-9-9-9-9-9-------------------------------------------|
d|-9-9-9-9-9-9--9-9-9-9-9-9--11-11-11-11-11--7-7-7-7-7-7-|
a|-7-7-7-7-7-7--9-9-9-9-9-9--11-11-11-11-11--7-7-7-7-7-7-|
e|--------------7-7-7-7-7-7--9--9---9--9--9--5-5-5-5-5-5-|

e|--------------------------|
b|--------------------------|
g|-9-9-9-9-9-9--------------|
d|-9-9-9-9-9-9--9-9-9-9-9-9-|
a|-7-7-7-7-7-7--9-9-9-9-9-9-|
e|--------------7-7-7-7-7-7-|

Solo:
e|------------|
b|------------|
g|------------|
d|-9b/11-11\7b|
a|------------|
e|------------|

e|-----------------------------------------------|
b|-----------------------------------------------|
g|-----------------------------------------------|
d|-----------------------------------------------|
a|-4/6-6/7-7/9-9/11-11/12-12/14-14/16-16/19-19---|
e|-----------------------------------------------|

  (Strum Lightly For Each Of This Part)
e|-------------------------------------|
b|-------------------------------------|
g|-9--------9--------9--------9--------|
d|-9--9--5--9--9--5--9--9--5--9--9--5--|
a|-7--9--5--7--9--5--7--9--5--7--9--5--|
e|----7--7-----7--7-----7--7-----7--7--|
				    PM...

Chorus:
e|-------------------------------------------------------|
b|-------------------------------------------------------|
g|-9-9-9-9-9-9-------------------------------------------|
d|-9-9-9-9-9-9--9-9-9-9-9-9--11-11-11-11-11--7-7-7-7-7-7-|
a|-7-7-7-7-7-7--9-9-9-9-9-9--11-11-11-11-11--7-7-7-7-7-7-|
e|--------------7-7-7-7-7-7--9--9---9--9--9--5-5-5-5-5-5-|

e|-----------------------------------------------|
b|-----------------------------------------------|
g|-9-9-9-9-9-9-----------------------------------|
d|-9-9-9-9-9-9--9-9-9-9-9-9--x-x-7--x-x-7--x-x-7-|
a|-7-7-7-7-7-7--9-9-9-9-9-9--x-x-7--x-x-7--x-x-7-|
e|--------------7-7-7-7-7-7--x-x-5--x-x-5--x-x-5-|

e|-------------------------------------------------------|
b|-------------------------------------------------------|
g|-9-9-9-9-9-9-------------------------------------------|
d|-9-9-9-9-9-9--9-9-9-9-9-9--11-11-11-11-11--7-7-7-7-7-7-|
a|-7-7-7-7-7-7--9-9-9-9-9-9--11-11-11-11-11--7-7-7-7-7-7-|
e|--------------7-7-7-7-7-7--9--9---9--9--9--5-5-5-5-5-5-|

e|-----------------------------------------------|
b|-----------------------------------------------|
g|-9-9-9-9-9-9-----------------------------------|
d|-9-9-9-9-9-9--9-9-9-9-9-9--x-x-7--x-x-7--x-x-7-|
a|-7-7-7-7-7-7--9-9-9-9-9-9--x-x-7--x-x-7--x-x-7-|
e|--------------7-7-7-7-7-7--x-x-5--x-x-5--x-x-5-|

e|-------------------------------------------------------|
b|-------------------------------------------------------|
g|-9-9-9-9-9-9-------------------------------------------|
d|-9-9-9-9-9-9--9-9-9-9-9-9--11-11-11-11-11--7-7-7-7-7-7-|
a|-7-7-7-7-7-7--9-9-9-9-9-9--11-11-11-11-11--7-7-7-7-7-7-|
e|--------------7-7-7-7-7-7--9--9---9--9--9--5-5-5-5-5-5-|

e|-----------------------------------------------|
b|-----------------------------------------------|
g|-9-9-9-9-9-9-----------------------------------|
d|-9-9-9-9-9-9--9-9-9-9-9-9--x-x-7--x-x-7--x-x-7-|
a|-7-7-7-7-7-7--9-9-9-9-9-9--x-x-7--x-x-7--x-x-7-|
e|--------------7-7-7-7-7-7--x-x-5--x-x-5--x-x-5-|

e|-------------------------------------------------------|
b|-------------------------------------------------------|
g|-9-9-9-9-9-9-------------------------------------------|
d|-9-9-9-9-9-9--9-9-9-9-9-9--11-11-11-11-11--7-7-7-7-7-7-|
a|-7-7-7-7-7-7--9-9-9-9-9-9--11-11-11-11-11--7-7-7-7-7-7-|
e|--------------7-7-7-7-7-7--9--9---9--9--9--5-5-5-5-5-5-|

e|--------------------------------------------------------|
b|--------------------------------------------------------|
g|-9-9-9-9-9-9--------------------------------------------|
d|-9-9-9-9-9-9--9-9-9-9-9-9--x-x-7--x-x-7--x-x-7--9----x9-|
a|-7-7-7-7-7-7--9-9-9-9-9-9--x-x-7--x-x-7--x-x-7--9----x9-|
e|--------------7-7-7-7-7-7--x-x-5--x-x-5--x-x-5--7----x9-|
			                 PM...
		                             (End)


This is pretty much what it should be... about 90% correct... if it isn't then tab it out yourself!  But in the mean time here's '3 Small Words' tabbed out for you! Listen to the song for the timing and stuff!  Please feel free to rate it in any way you want!  

Enjoy!
            
Submit corrections


        3 Small Words lessons Hard to play? Try these video lessons and learn fast 3 Small Words lessons
        
↑ Back to top | Tablatures and chords for acoustic guitar and electric guitar, ukulele, drums are parodies/interpretations of the original songs. You may use it for private study, scholarship, research or language learning purposes only