Home » J » Josie And The Pussycats »

Josie And The Pussycats - 3 Small Words Tabs

Artists:  A B C D E F G H I J K L M N O P Q R S T U V W X Y Z # 

3 Small Words Tabs

(ver. 2) Click to play this song!
Josie And The Pussycats
Josie and the Pussycats (The Movie)
3 Small Words
Standard Tuning (E,A,D,G,B,E)

Hey folks!  I couldn't find this tab anywhere on the net, so I tabbed it myself.
There have been people posting this tab on the net and just changing the name and e-
mail address so they could get credit.  So, for the record, this is the first tab of
this song and I, Lenny Lones, tabbed it.  Please feel free to post this tab
anywhere, just give me full credit.


Note: * = 11

listen to the song for the "X"s in the verse, I'm lazy.

Intro
-------------------
-------------------
-9--9-9-9----------
-9--9-9-9--9--9--7-
-7--7-7-7--9--9--7-
-----------7--7--5-

Verse
-9-9-9-9-9-9-9-9----------------------------------------------------
-9-9-9-9-9-9-9-9--9-9-9-9-9-9-9-9--7-7-7-7-7-7-7-7--4-4-4-4-4-4-4-4-
-7-7-7-7-7-7-7-7--9-9-9-9-9-9-9-9--7-7-7-7-7-7-7-7--4-4-4-4-4-4-4-4-
------------------7-7-7-7-7-7-7-7--5-5-5-5-5-5-5-5--2-2-2-2-2-2-2-2-

Chorus
-9-9-9-9-9-9-9-9----------------------------------------------------
-9-9-9-9-9-9-9-9--9-9-9-9-9-9-9-9--*-*-*-*-*-*-*-*--7-7-7-7-7-7-7-7-
-7-7-7-7-7-7-7-9--9-9-9-9-9-9-9-9--*-*-*-*-*-*-*-*--7-7-7-7-7-7-7-7-
------------------7-7-7-7-7-7-7-7--9-9-9-9-9-9-9-9--5-5-5-5-5-5-5-5-

-9-9-9-9-9-9-9-9------------------------------------------------
-9-9-9-9-9-9-9-9--9-9-9-9-9-9-9-9--x-x-7--x-x-7--x-x-7--7-7-7-7-
-7-7-7-7-7-7-7-7--9-9-9-9-9-9-9-9--x-x-7--x-x-7--x-x-7--7-7-7-7-
------------------7-7-7-7-7-7-7-7--x-x-5--x-x-5--x-x-5--5-5-5-5-

Bridge
-------------------
-------------------
-9--9-9-9----------
-9--9-9-9--9--9--7-
-7--7-7-7--9--9--7-
-----------7--7--5-

Bridge #2
(Only part of the whole song I'm not 100% sure about)
-----------
-----------
-----------
-14b-------
----14--12-
-----------

Ending
-9-9-9-9-9-9-9-9----------------------------------------------------
-9-9-9-9-9-9-9-9--9-9-9-9-9-9-9-9--*-*-*-*-*-*-*-*--7-7-7-7-7-7-7-7-
-7-7-7-7-7-7-7-7--9-9-9-9-9-9-9-9--*-*-*-*-*-*-*-*--7-7-7-7-7-7-7-7-
------------------7-7-7-7-7-7-7-7--9-9-9-9-9-9-9-9--5-5-5-5-5-5-5-5-

-----------------------------------------------------------
-----------------------------------------------------------
-9-9-9-9-9-9-9-9------------------------------------9--9-9-
-9-9-9-9-9-9-9-9--9-9-9-9-9-9-9-9--7-7-7-7-7-7-7-7--9--9-9-
-7-7-7-7-7-7-7-7--9-9-9-9-9-9-9-9--7-7-7-7-7-7-7-7--7--7-7-
------------------7-7-7-7-7-7-7-7--5-5-5-5-5-5-5-5---------

Song Layout:
Intro  1X
Verse  2X
Chorus 2X
Bridge 1X
Verse  2X
Chorus 2X
Bridge #2  2X
Chorus 1X
Ending 1X
            
Submit corrections

↑ Back to top | Tablatures and chords for acoustic guitar and electric guitar, ukulele, drums are parodies/interpretations of the original songs. You may use it for private study, scholarship, research or language learning purposes only