Home » J » Josie And The Pussycats »

Josie And The Pussycats - 3 Small Words Tabs

Artists:  A B C D E F G H I J K L M N O P Q R S T U V W X Y Z # 

3 Small Words Tabs

(ver. 1) Click to play this song!
Josie And The Pussycats
Josie and the pussycats has only one guitarist but when you listen
to the song you can hear that its played by 2 guitars.

intro (1 guitar)
e|----------------|
B|----------------|
G|-9--14-13-------|
D|-9--14-13--9--7-|
A|-7--12-11--9--7-|
E|-----------7--5-|

pre-chorus  (palm muted) (2 guitars)
e|------------------------------------------------------
B|------------------------------------------------------
G|-9999999999999999-------------------------------------
D|-9999999999999999--9999999999999999--7777777777777777-
A|-7777777777777777--9999999999999999--7777777777777777-
E|-------------------7777777777777777--5555555555555555-
  
 ------------------|
 ------------------|
 ------------------|
 -4444444444444444-|
 -4444444444444444-|
 -2222222222222222-|

chorus (2 guitars)
e|--------------------------------------------
B|--------------------------------------------
G|-999-9--------------------------------999-9-
D|-999-9--9-99-9-99--1111-11--9-99-9-99-999-9-
A|-777-7--9-99-9-99--1111-11--9-99-9-99-777-7-
E|--------7-77-7-77---9-9--9--7-77-7-77-------                                                      
  
  -------------------------------|
  -------------------------------|
  -------------------------------|
  -9-99-9-99-xx-7-xx-7-xx-7-7-77-|
  -9-99-9-99-xx-7-xx-7-xx-7-7-77-|
  -7-77-7-77-xx-5-xx-5-xx-5-5-55-|
 
Bridge (1 guitar)
e|--------------------------------------|
B|--------------------------------------|
G|--------------------------------------|
D|-9^---7~---------------6--7--9--------|
A|---------------6--7--9----------7~----|
E|----------7--9------------------------|

post-bridge (1 guitar)      (2nd guitar fromthe 2nd time on)
e|------------------------| |-------------------|
B|------------------------| |-------------------|
G|-9----------------------| |---9---9---9---9---|
D|-9----------9-----7-----| |-------------------|
A|-7----------9-----7-----| |-7---7---7---7-----|
E|------------7-----5-----| |-------------------|

intro 2x
verse 2x
chorus 2x
intro 2x
verse 2x
chorus 2x
bridge 1x
post-bridge 4x
chorus 2x
outro 1x -> D-777-
            A-777-
            E-555-
            
Submit corrections

↑ Back to top | Tablatures and chords for acoustic guitar and electric guitar, ukulele, drums are parodies/interpretations of the original songs. You may use it for private study, scholarship, research or language learning purposes only