Home » J » Josh Turner »

Josh Turner - Your Man Tabs

Artists:  A B C D E F G H I J K L M N O P Q R S T U V W X Y Z # 

Your Man Tabs

(ver. 2) Click to play this song!
Josh Turner
(Intro)

----------------------------------------------------------------------------
Your Man by Josh Turner  
----------------------------------------------------------------------------
============================================================================

| /  slide up
| \  slide down
| h  hammer-on
| p  pull-off
| b  Bend
| ~  vibrato
| +  harmonic
| x  Mute note


[intro]

E|---------------------9--------|--------------------------|
B|----------------9/11---b7---7-|---7-9-b7-----------------|
G|-------6-6/8-11-----------8---|-8--------b8----6/8\6---6-|
D|---6/8------------------------|-------------8--------8---|
A|-9----------------------------|--------------------------|
E|------------------------------|--------------------------|

E|------------------------------|-9-11-9--------------------------------|
B|---7--7/9-b9-7-b9-7--9-b9-7-6-|--------b9-b9-7-9-9-7------------------|
G|-6--8-------------------------|-----------------------6/8\6-----------|
D|------------------------------|-----------------------------6/8\6-----|
A|------------------------------|-----------------------------------9---|
E|------------------------------|---------------------------------------|

[Chords]
            x
E|------------------------------|
B|------------------------------|
G|-4-----6----------------------|
D|-4--4--4--4-------------------|
A|-2--4--4--4-------------------|
E|----2-----2-------------------|

[Break down]

Theres no hurry,don't you worry...

E|------------------------------|
B|------------------------------|
G|------------------------------|
D|-6--4-------------------------|
A|-4--4-------------------------|
E|-4--2-------------------------|
            
Submit corrections

↑ Back to top | Tablatures and chords for acoustic guitar and electric guitar, ukulele, drums are parodies/interpretations of the original songs. You may use it for private study, scholarship, research or language learning purposes only