Home » J » Josh Turner »

Josh Turner - Your Man Tabs

Artists:  A B C D E F G H I J K L M N O P Q R S T U V W X Y Z # 

Your Man Tabs

(ver. 3) Click to play this song!
Josh Turner
This is how I play it so that you can put the capo on the 4th fret and play the chords 
that are already tabbed on this site. It sounds ok to me, and I know it's not perfect...most 
of it is just the notes on one string. You can also use the same notes I found to make your 
own solo to this song, which is fun. Sorry if this doesn't work for you, I just thought I'd put 
it out there and it might be useful to someone. Also, this is pretty much my first real tab, so 
go easy on me...haha.
- Brittany O'Halloran

Intro
E--------------------------------------------------------------------
B--------------------------------------------------------------------
G------------------------------16-------------15---------------------
D--------------------16-16/18-----18----16-18----18-16-------16------
A-----------16-16/18-----------------18----------------18-16---------
E--14-16/18-----------------------------------------------------14-18

E-----------------------------------------------------------
B-----------------------------------------------------------
G-----------------------------------------------------------
D-----------------------15-18-15----16-16----16-16-18/20----
A--16-16-16-18-16-18-19----------18-------18----------------
E-----------------------------------------------------------

Verse
E-----------------------------------------------------------
B-----------------------------------------------------------
G---------------------------------15------------------------
D-----------------16-18----16--18----18-16-------16---------
A-----------16-18-------18-----------------18-16------------
E--14-16/18----------------------------------------14-18----

E-----------------------------------------------------------
B-----------------------------------------------------------
G-----------------------------------------------------------
D-----------------------15-18-15----16---16-16-18/20--------
A--16-16-16-18-16-18-19----------18----18-------------------
E-----------------------------------------------------------
            
Submit corrections

↑ Back to top | Tablatures and chords for acoustic guitar and electric guitar, ukulele, drums are parodies/interpretations of the original songs. You may use it for private study, scholarship, research or language learning purposes only