Home » J » Josh Turner »

Josh Turner - Long Black Train Tabs

Artists:  A B C D E F G H I J K L M N O P Q R S T U V W X Y Z # 

Long Black Train Tabs

(ver. 1) Click to play this song!
Josh Turner
solo for long black train.

hey. heres the steel guitar solo from long black train adapted for guitar.

e|-----5-7/9-7-----5-----5-----0--0---0-0----0--0---0-0---0----------5---12p9----10p9----------------------|
B|-5h7---------5h7---7p5---5--/5-/5---5-5---/5-/5---5-5--/5------5h7----------10------12-10p9------3----2--|
G|----------------------------/6-/6---6-6---/6-/6---6-6--/6\4\2------------------------------12p10---------|
D|--------------------------------------------------------------------------------------------------4\2--4-|
A|---------------------------------------------------------------------------------------------------------|
E|---------------------------------------------------------------------------------------------------------|

e|----------------------------------------------------------------------------------------------------------
b|----------------------------------------------------------------------------------------------------------
g|---4-2--4-6--11-9-----------------------------------------------------------------------------------------
d|----------------------------------------------------------------------------------------------------------
a|----------------------------------------------------------------------------------------------------------
E|----------------------------------------------------------------------------------------------------------
            
Submit corrections

↑ Back to top | Tablatures and chords for acoustic guitar and electric guitar, ukulele, drums are parodies/interpretations of the original songs. You may use it for private study, scholarship, research or language learning purposes only