Home » J » Josh Turner »

Josh Turner - Would You Go With Me Tabs

Artists:  A B C D E F G H I J K L M N O P Q R S T U V W X Y Z # 

Would You Go With Me Tabs

(ver. 3) Click to play this song!
Josh Turner
"Would Go With Me"--Josh Turner
Intro

Notation Legend:
h-Hammer on
p-Pull off
s-Slide

**Note: This song has a capo on the second fret, but when playing intro pretend that the 
capo is not on and use original fret numbers.
Part 1:
E/--------------------
A/--------------------
D/--------------------
G/-------11--10--8----
B/-11--9--------------
E/--------------------


Part 2:At end there, as notated, slide down to 6th fret
E/------------------------
A/------------------------
D/----------------11-8-s6-
G/-8-h10p-11-10-8---------
B/------------------------
E/------------------------

**Note:Part 2 is repeated three times and then on the third time there is a outro type that 
looks like this:


E/--------------------
A/--------------------
D/-6s-4s-3------------
G/---------6----------
B/--------------------
E/--------------------

            
Submit corrections

↑ Back to top | Tablatures and chords for acoustic guitar and electric guitar, ukulele, drums are parodies/interpretations of the original songs. You may use it for private study, scholarship, research or language learning purposes only