Home » J » Josh Turner »

Josh Turner - Would You Go With Me Tabs

Artists:  A B C D E F G H I J K L M N O P Q R S T U V W X Y Z # 

Would You Go With Me Tabs

(ver. 2) Click to play this song!
Josh Turner
Verse One:
E--0-0-0-0-------------------0-0-0-0-------|
B--0-0-0-0-------------------0-0-0-0-------|
G--9-9-9-9-------------------4-4-4-4-------|
D--9-9-9-9-------------------4-4-4-4-------|
A--7-7-7-7-------------------2-2-2-2-------|
E--0-0-0-0-------------------0-0-0-0-------|
   Would you go with me     if we rolled down streets of fire
E--0-0-0-0-------------------0-0-0-0-------|
B--0-0-0-0-------------------0-0-0-0-------|
G--6-6-6-6-------------------6-6-6-6-------|
D--6-6-6-6-------------------7-7-7-7-------|
A--4-4-4-4-------------------7-7-7-7-------|
E--0-0-0-0-------------------5-5-5-5-------|
   Would you hold on to me   tighter
E--0-0-0-0-------------------0-0-0-0-------|
B--0-0-0-0-------------------0-0-0-0-------|
G--6-6-6-6-------------------4-4-4-4-------|
D--6-6-6-6-------------------2-2-2-2-------|
A--4-4-4-4-------------------2-2-2-2-------|
E--0-0-0-0-------------------0-0-0-0-------|
   as the summer sun got     higher
E--0-0-0-0-------------------0-0-0-0------------------0-0-0-0----|
B--0-0-0-0-------------------0-0-0-0------------------0-0-0-0----|
G--6-6-6-6-------------------6-6-6-6------------------4-4-4-4----|
D--6-6-6-6-------------------7-7-7-7------------------4-4-4-4----|
A--4-4-4-4-------------------7-7-7-7------------------6-6-6-6----|
E--0-0-0-0-------------------5-5-5-5------------------0-0-0-0----|
If we roll from town to      town and never shut it   down

verse 2: (same as verse one)
Would you go with me if we were lost in fields of clover
Would we walk even closer until the trip was over
And would it be okay if I didn't know the way

Chorus:
E--0-0-0-0--------------------------0-0-0-0-------|
B--0-0-0-0--------------------------0-0-0-0-------|
G--6-6-6-6--------------------------4-4-4-4-------|
D--7-7-7-7--------------------------2-2-2-2-------|
A--7-7-7-7--------------------------2-2-2-2-------|
E--5-5-5-5--------------------------0-0-0-0-------|
   If I gave you my hand would you  take it and make me the
E--0-0-0-0-------------------0-0-0-0-------|
B--0-0-0-0-------------------0-0-0-0-------|
G--9-9-9-9-------------------6-6-6-6-------|
D--9-9-9-9-------------------6-6-6-6-------|
A--7-7-7-7-------------------4-4-4-4-------|
E--0-0-0-0-------------------0-0-0-0-------|
   happiest man in the       world
E--0-0-0-0--------------------------0-0-0-0--------------0-0-0-0---------|
B--0-0-0-0--------------------------0-0-0-0--------------0-0-0-0---------|
G--6-6-6-6--------------------------4-4-4-4--------------6-6-6-6---------|
D--7-7-7-7--------------------------2-2-2-2--------------6-6-6-6---------|
A--7-7-7-7--------------------------2-2-2-2--------------4-4-4-4---------|
E--5-5-5-5--------------------------0-0-0-0--------------0-0-0-0---------|
   If I told you my heart couldn't  beat one more minute without you, girl
E--0-0-0-0--------------------------0-0-0-0-------|
B--0-0-0-0--------------------------0-0-0-0-------|
G--6-6-6-6--------------------------4-4-4-4-------|
D--7-7-7-7--------------------------2-2-2-2-------|
A--7-7-7-7--------------------------2-2-2-2-------|
E--5-5-5-5--------------------------0-0-0-0-------|
   Would you accompany me to the    edge of the sea
E--0-0-0-0--------------------------0-0-0-0-------|
B--0-0-0-0--------------------------0-0-0-0-------|
G--9-9-9-9--------------------------6-6-6-6-------|
D--9-9-9-9--------------------------6-6-6-6-------|
A--7-7-7-7--------------------------4-4-4-4-------|
E--0-0-0-0--------------------------0-0-0-0-------|
   Let me know if you're really a   dream
E--0-0-0-0--------------------------0-0-0-0---------------0-0-0-0--|
B--0-0-0-0--------------------------0-0-0-0---------------0-0-0-0--|
G--6-6-6-6--------------------------4-4-4-4---------------9-9-9-9--|
D--7-7-7-7--------------------------2-2-2-2---------------9-9-9-9--|
A--7-7-7-7--------------------------2-2-2-2---------------7-7-7-7--|
E--5-5-5-5--------------------------0-0-0-0---------------0-0-0-0--|
   I love you so, so                would you go with     me

Verse 3:(same as verses 1&2)
Would you go with me if we rode the clouds together
Could you not look down forever
If you were lighter than a feather
Oh, and if I set you free, would you go with me

Chorus: (same as chorus before)
If I gave you my hand would you take it
And make me the happiest man in the world
If I told you my heart couldn't beat one more minute without you, girl
Would you accompany me to the edge of the sea
Help me tie up the ends of a dream
I gotta know, would you go with me
I love you so, so would you go with me


yah thats all, this is one of my favorite songs, and my very first tab...hope you like it too!!

---macvsgp714
            
Submit corrections

↑ Back to top | Tablatures and chords for acoustic guitar and electric guitar, ukulele, drums are parodies/interpretations of the original songs. You may use it for private study, scholarship, research or language learning purposes only