» » »

John Prine - In Spite Of Ourselves Tabs

Artists:  A B C D E F G H I J K L M N O P Q R S T U V W X Y Z # 

In Spite Of Ourselves Tabs

(ver. 3) Click to play this song!
John Prine
 Rating:
4.3/5 (6 votes)

 In Spite Of Ourselves lessons Tabs too difficult? Try these video lessons and learn fast
 
                ----------------------------------------------------------------------------
                 In Spite of Ourselves - John Prine
----------------------------------------------------------------------------



Tuning: Standard




  Q=140

Intro
|-3p0---0--------|---------0----|-3p0---0--------|---------0----|
|-----------3----|-1--1--3------|-----------3----|-1--1--3------|
|----------------|--------------|----------------|--------------|
|-----2-------2--|----2------2--|-----2-------2--|----2------2--|
|-3--------------|-3------------|-3--------------|-3------------|
|---------3------|-------3------|---------3------|-------3------|
                               
|-1---------------|---------0----|-3p0---0--------|---------0----|
|-----------1-----|-1--1--3------|-----------3----|-1--1--3------|
|-------2-------2-|--------------|----------------|--------------|
|-----3-------3---|----3------3--|-----2-------2--|----2------2--|
|---------3-------|--------------|-3--------------|-3------------|
|-0h1-------------|-1-----1------|---------3------|-------3------|

|-0--------------|-0--------------|-3----3--------|--------------|
|---3---0--------|---3---0--------|----------0----|-1------------|
|-----------0----|-----------0----|---------------|------0-------|
|-----0-------0--|-----0-------0--|----0-------0--|----2---------|
|----------------|----------------|---------------|-3---------0--|
|-3-------3------|-3-------3------|-3------3------|--------3-----|


Verse
|----------------|---------------|----------------|---------------|
|-1---------1----|-1--------1----|-1---------1----|-1--------1----|
|-------0--------|------0--------|-------0--------|------0--------|
|-----2-------2--|----2-------2--|-----2-------2--|----2-------2--|
|-3--------------|-3-------------|-3--------------|-3-------------|
|---------3------|--------3------|---------3------|--------3------|

|----------------|---------------|----------------|---------------|
|-1---------1----|-1--------1----|-1---------1----|-1--------1----|
|-------2--------|------2--------|-------0--------|------0--------|
|-----3-------3--|----3-------3--|-----2-------2--|----2-------2--|
|----------------|---------------|-3--------------|-3-------------|
|-1-------1------|-1------1------|---------3------|--------3------|

|-3-------------|-3-------------|-3--------------|---------------|
|----------0----|----------0----|-----------0----|-1--------1----|
|------0--------|------0--------|-------0--------|------0--------|
|----0-------0--|----0-------0--|-----0-------0--|----2-------2--|
|---------------|---------------|----------------|-3-------------|
|-3------3------|-3------3------|-3-------3------|--------3------|


Chorus
|---------------|---------------|----------------|----------------|
|-1--------1----|-1--------1----|-1---------1----|-1---------1----|
|------0--------|------2--------|-------2--------|-------0--------|
|----2-------2--|----3-------3--|-----3-------3--|-----2-------2--|
|-3-------------|---------------|----------------|-3--------------|
|--------3------|-1------1------|-1-------1------|---------3------|

|---------------|-3--------------|-3-------------|---------------|
|-1--------1----|-----------0----|----------0----|-1--------1----|
|------0--------|-------0--------|------0--------|------0--------|
|----2-------2--|-----0-------0--|----0-------0--|----2-------2--|
|-3-------------|----------------|---------------|-3-------------|
|--------3------|-3-------3------|-3------3------|--------3------|

|---------------|---------------|----------------|----------------|
|-1--------1----|-1--------1----|-1---------1----|-1---------1----|
|------0--------|------2--------|-------2--------|-------0--------|
|----2-------2--|----3-------3--|-----3-------3--|-----2-------2--|
|-3-------------|---------------|----------------|-3--------------|
|--------3------|-1------1------|-1-------1------|---------3------|

|---------------|-3--------------|-3-------------|---------------|
|-1--------1----|-----------0----|----------0----|-1--------1----|
|------0--------|-------0--------|------0--------|------0--------|
|----2-------2--|-----0-------0--|----0-------0--|----2-------2--|
|-3-------------|----------------|---------------|-3-------------|
|--------3------|-3-------3------|-3------3------|--------3------|


Guitar Break 
|-3p0---0--------|---------0----|-1---------------|---------0----|
|-----------3----|-1--1--3------|-----------1-----|-1--1--3------|
|----------------|--------------|-------2-------2-|--------------|
|-----2-------2--|----2------2--|-----3-------3---|----3------3--|
|-3--------------|-3------------|---------3-------|--------------|
|---------3------|-------3------|-0h1-------------|-1-----1------|

|-3p0---0--------|---------0----|-1---------------|---------0----|
|-----------3----|-1--1--3------|-----------1-----|-1--1--3------|
|----------------|--------------|-------2-------2-|--------------|
|-----2-------2--|----2------2--|-----3-------3---|----3------3--|
|-3--------------|-3------------|---------3-------|--------------|
|---------3------|-------3------|-0h1-------------|-1-----1------|

|-3p0---0--------|---------0----|---------------|-3-------------|
|-----------3----|-1--1--3------|-1--------1----|----------0----|
|----------------|--------------|------0--------|------0--------|
|-----2-------2--|----2------2--|----2-------2--|----0-------0--|
|-3--------------|-3------------|-3-------------|---------------|
|---------3------|-------3------|--------3------|-3------3------|

|---------------|-^-8----|
|-1--------1----|-^-8----|
|------0--------|-^-9----|
|----2-------2--|-^10----|
|-3-------------|--------|
|--------3------|--------|


| /  slide up
| \  slide down
| h  hammer-on
| p  pull-off
| ~  vibrato
| +  harmonic
| x  Mute note
===========================================================================
            
Submit corrections


        In Spite Of Ourselves lessons Hard to play? Try these video lessons and learn fast In Spite Of Ourselves lessons
        
↑ Back to top | Tablatures and chords for acoustic guitar and electric guitar, ukulele, drums are parodies/interpretations of the original songs. You may use it for private study, scholarship, research or language learning purposes only