» » »

John Prine - In Spite Of Ourselves Bass

Artists:  A B C D E F G H I J K L M N O P Q R S T U V W X Y Z # 

In Spite Of Ourselves Bass

(ver. 1) Click to play this song!
John Prine
 Rating:
4/5 (4 votes)

 In Spite Of Ourselves lessons Tabs too difficult? Try these video lessons and learn fast
 
                ----------------------------------------------------------------------------
----------------------------------------------------------------------------



Tuning: Standard


                                    

 Q=140

|-----------|-----------|-----------|-----------|
|-----------|-----------|-----------|-----------|
|-3---------|-3---------|------3----|------3----|
|------3----|------3----|-1---------|-1---------|


|-----------|-----------|-------------|-------------|
|-----------|-----------|-------------|-------------|
|-3---------|-3---------|-10----------|-10----------|
|------3----|------3----|-------10----|-------10----|


|-------------|-----------|-----------|-----------|
|-------------|-----------|-----------|-----------|
|-10----------|-3---------|-3---------|-3---------|
|-------10----|------3----|------3----|------3----|


|-----------|-----------|-----------|-----------|
|-----------|-----------|-----------|-----------|
|-3---------|-3---------|------3----|------3----|
|------3----|------3----|-1---------|-1---------|


|-----------|-----------|-------------|-------------|
|-----------|-----------|-------------|-------------|
|-3---------|-3---------|-10----------|-10----------|
|------3----|------3----|-------10----|-------10----|


|-------------|-----------|-----------|-----------|
|-------------|-----------|-----------|-----------|
|-10----------|-3---------|-3---------|-3---------|
|-------10----|------3----|------3----|------3----|


|-----------|-----------|-----------|-----------|
|-----------|-----------|-----------|-----------|
|-3---------|-3---------|------3----|------3----|
|------3----|------3----|-1---------|-1---------|


|-----------|-----------|-------------|-------------|
|-----------|-----------|-------------|-------------|
|-3---------|-3---------|-10----------|-10----------|
|------3----|------3----|-------10----|-------10----|


|-------------|-----------|-----------|-----------|
|-------------|-----------|-----------|-----------|
|-10----------|-3---------|-3---------|------3----|
|-------10----|------3----|------3----|-1---------|


|-----------|-----------|-----------|-------------|
|-----------|-----------|-----------|-------------|
|------3----|-3---------|-3---------|-10----------|
|-1---------|------3----|------3----|-------10----|


|-------------|-----------|-----------|-----------|
|-------------|-----------|-----------|-----------|
|-10----------|-3---------|-3---------|------3----|
|-------10----|------3----|------3----|-1---------|


|-----------|-----------|-----------|-------------|
|-----------|-----------|-----------|-------------|
|------3----|-3---------|-3---------|-10----------|
|-1---------|------3----|------3----|-------10----|


|-------------|-----------|-----------|-----------|
|-------------|-----------|-----------|-----------|
|-10----------|-3---------|-3---------|-3---------|
|-------10----|------3----|------3----|------3----|


|-----------|-----------|-----------|-----------|
|-----------|-----------|-----------|-----------|
|------3----|------3----|-3---------|-3---------|
|-1---------|-1---------|------3----|------3----|


|-----------|-----------|-----------|-----------|
|-----------|-----------|-----------|-----------|
|------3----|------3----|-3---------|-3---------|
|-1---------|-1---------|------3----|------3----|


|-----------|-------------|----------------|
|-----------|-------------|----------------|
|-3---------|-10----------|-3---------3----|
|------3----|-------10----|------3---------|

| /  slide up
| \  slide down
| h  hammer-on
| p  pull-off
| ~  vibrato
| +  harmonic
| x  Mute note
===========================================================================
            
Submit corrections


        In Spite Of Ourselves lessons Hard to play? Try these video lessons and learn fast In Spite Of Ourselves lessons
        
↑ Back to top | Tablatures and chords for acoustic guitar and electric guitar, ukulele, drums are parodies/interpretations of the original songs. You may use it for private study, scholarship, research or language learning purposes only