» » »

John Legend - One Woman Man Tabs

Artists:  A B C D E F G H I J K L M N O P Q R S T U V W X Y Z # 

One Woman Man Tabs

(ver. 1) Click to play this song!
John Legend
 Rating:
4.4/5 (11 votes)

 One Woman Man  lessons Tabs too difficult? Try these video lessons and learn fast
 
                [Intro]
e|---------------------7---3--7--5---------------------------------------|
B|---------------------8---3--7--5---------------------------------------|
G|---------------------9---4--7--6---------------------------------------|
D|---------------------9---5--9--7---------------------------------------|
A|-----5-7-7/9-7-5-5/7-7---5--9--7---------------------------------------|
E|-5/7---------------------3--7--5--5--3--2--0---------------------------|

[Verse] (x2)
                 Em  G   Bm  A
e|---------------7---3---7---5-------------------------------------------|
B|---------------8---3---7---5-------------------------------------------|
G|---------------9---4---7---6-------------------------------------------|
D|---------------9---5---9---7-------------------------------------------|
A|---------------7---5---9---7-------------------------------------------|
E|-------------------3---7---5--5--3--2--0-------------------------------|

[Pre-chorus]
            Em  G   Bm  A               Em  G   Bm  A
e|----------7---3---7---5---------------7---3---7---5--------------------|
B|----------8---3---7---5---------------9---3---7---5--------------------|
G|----------9---4---7---6---------------8---4---7---6--------------------|
D|----------9---5---9---7---------------8---5---9---7--------------------|
A|----------7---5---9---7---------------7---5---9---7--------------------|
E|--------------3---7---5--5--3--2--0-------3---7---5--------------------|

[Chorus] (x3)
                 Em  G   Bm  A
e|---------------7---3---7---5-------------------------------------------|
B|---------------8---3---7---5-------------------------------------------|
G|---------------9---4---7---6-------------------------------------------|
D|---------------9---5---9---7-------------------------------------------|
A|---------------7---5---9---7-------------------------------------------|
E|-------------------3---7---5--5--3--2--0-------------------------------|

[Verse] (x2)
                 Em  G   Bm  A
e|---------------7---3---7---5-------------------------------------------|
B|---------------8---3---7---5-------------------------------------------|
G|---------------9---4---7---6-------------------------------------------|
D|---------------9---5---9---7-------------------------------------------|
A|---------------7---5---9---7-------------------------------------------|
E|-------------------3---7---5--5--3--2--0-------------------------------|

[Pre-chorus]
            Em  G   Bm  A               Em  G   Bm  A
e|----------7---3---7---5---------------7---3---7---5--------------------|
B|----------8---3---7---5---------------9---3---7---5--------------------|
G|----------9---4---7---6---------------8---4---7---6--------------------|
D|----------9---5---9---7---------------8---5---9---7--------------------|
A|----------7---5---9---7---------------7---5---9---7--------------------|
E|--------------3---7---5--5--3--2--0-------3---7---5--5--3--2--0--------|

[Chorus] (x3)
                 Em  G   Bm  A
e|---------------7---3---7---5-------------------------------------------|
B|---------------8---3---7---5-------------------------------------------|
G|---------------9---4---7---6-------------------------------------------|
D|---------------9---5---9---7-------------------------------------------|
A|---------------7---5---9---7-------------------------------------------|
E|-------------------3---7---5--5--3--2--0-------------------------------|

[Bridge]
                C   G   D  D        C   G   Em  F#m A 
e|--------------3---3---2--2p3h2----3---3---0---2---5--------------------|
B|--------------5---3---3--3--------5---3---0---2---5--------------------|
G|--------------5---4---2--2--------5---4---0---2---6--------------------|
D|--------------5---5---0--0--------5---5---2---4---7--------------------|
A|--------------3---5---------------3---5---2---4---7--------------------|
E|------------------3-------------------3---0---2---5--5--3--2--0--------|

[Chorus/Outro]
                 Em  G   Bm  A
e|---------------7---3---7---5-------------------------------------------|
B|---------------8---3---7---5-------------------------------------------|
G|---------------9---4---7---6-------------------------------------------|
D|---------------9---5---9---7-------------------------------------------|
A|---------------7---5---9---7-------------------------------------------|
E|-------------------3---7---5--5--3--2--0-------------------------------|            
Submit corrections


        One Woman Man  lessons Hard to play? Try these video lessons and learn fast One Woman Man  lessons
        
↑ Back to top | Tablatures and chords for acoustic guitar and electric guitar, ukulele, drums are parodies/interpretations of the original songs. You may use it for private study, scholarship, research or language learning purposes only