» » »

John Legend - Lets Get Lifted Again Tabs

Artists:  A B C D E F G H I J K L M N O P Q R S T U V W X Y Z # 

Lets Get Lifted Again Tabs

(ver. 1) Click to play this song!
John Legend
 Rating:
4/5 (4 votes)

 Lets Get Lifted Again  lessons Tabs too difficult? Try these video lessons and learn fast
 
                INTRO:   F#m  E    

E ------2-4-2---------2-4-2-----2---------2----------------
B --1/2-------2---2-5-------2-2---5---1/2---5---1/2-1/2----
G ----------------------------------4---------4------------
D ---------------------------------------------------------
A ---------------------------------------------------------
E --------------------------------------------------------- 
       
E ------2-4-2--------2-2-4-2-----2-------------2-------------
B --2-5-------2--2-5--------2-2----5---1/2-1/2---5---1/2-1/2-
G -----------------------------------4-------------4---------
D -----------------------------------------------------------
A -----------------------------------------------------------
E ----------------------------------------------------------- 


           MAIN RIFF THROUGHOUT REST OF SONG

E ------2-4-2---------2-4-2----2--------2--------------
B --2-5-------2---2-5--------2---5---2----5---1/2-1/2--
G ---------------------------------4--------4----------
D -----------------------------------------------------
A -----------------------------------------------------
E ----------------------------------------------------- 
        NOTE: Sometimes with slight variation


VERSE:
 F#m        E
Oooooooooh ooooh Oh
 F#m
Come and go with me

There's so much new to see
     E
Get high with me, 

Come fly with me


F#m
Ooh, I want you so

I'm about to lose control
     E
Get high with me
                   F#m          
Come fly with meeeeeeeeeeeeeeeee,
E                      
  Ooooooooooooooooooooh
F#m
  Ooooooooooooooooooooh
E                                      F#m
Oh oh oh oh oh oh oh oh oh oh oh oh oh oh 


F#m      E
So much,  so much I wanna show you
   F#m       
Heeey, so much, oooooh
E
 So much I wanna show you
F#m
Ooooooooooooooooooooh
     E                       F#m   E
Get high with me, come fly meeeee


            
Submit corrections


        Lets Get Lifted Again  lessons Hard to play? Try these video lessons and learn fast Lets Get Lifted Again  lessons
        
↑ Back to top | Tablatures and chords for acoustic guitar and electric guitar, ukulele, drums are parodies/interpretations of the original songs. You may use it for private study, scholarship, research or language learning purposes only