Home » J » Jo Dee Messina »

Jo Dee Messina - Heads Carolina, Tails California Tabs

Artists:  A B C D E F G H I J K L M N O P Q R S T U V W X Y Z # 

Heads Carolina, Tails California Tabs

(ver. 2) Click to play this song!
Jo Dee Messina
Jo Dee Messina  -  Heads Carolina, Tails California  (intro)



************************************************************************************

/   =   slide up                             x   =   dead note

\   =   slide down                           h   =   hammer-on

************************************************************************************


It sounds like 2 guitars playing the main riff of the intro...one playing rhythm,
and one playing a lead riff.
Both of these parts are played through twice:



GUITAR 1 (RHYTHM)


       E            B           A           B

E---------------------------------------------------------|
B---------------------------------------------------------|
G------9--x-9--x-9\-4--x-4--x-4-2--x-2--x-2-4--4-4--4-4---|
D------9--x-9--x-9\-4--x-4--x-4-2--x-2--x-2-4--4-4--4-4---|
A--2/7-7--x-7--x-7\-2--x-2--x-2-0--x-0--x-0-2--2-2--2-2---|
E---------------------------------------------------------|



GUITAR 2 (LEAD)


   E            B             A             B          

E--4--4-5-4----------------------------------------------|
B--5--5-5-5--5-----4---5-4-4-----0-0-0h2-2---5-4-5-4-4---|
G------4---4-4--4--4-4-4-4-4--2--2-2-2---2--4---4---4----|
D---------------4---------4---2---2-----2---4------------|
A--------------------------------------------------------|
E--------------------------------------------------------|



            
Submit corrections

↑ Back to top | Tablatures and chords for acoustic guitar and electric guitar, ukulele, drums are parodies/interpretations of the original songs. You may use it for private study, scholarship, research or language learning purposes only