» » »

Jimi Hendrix - Foxy Lady Tabs

Artists:  A B C D E F G H I J K L M N O P Q R S T U V W X Y Z # 

Foxy Lady Tabs

(ver. 3) Click to play this song!
Jimi Hendrix
 Rating:
4/5 (4 votes)

 Foxy Lady lessons Tabs too difficult? Try these video lessons and learn fast
 
                -17b-14--17b-14------17b-17pb-17----------------------------------
---------------16v--------------14--------------------------------
-----------------------------------15b-14p12--------14-16b-16b-16v
--------------------------------------------12----16--------------
------------------------------------------------14----------------

----------------------14--14-17b-17--14--14-16-14-----------------
--------------------14--17-------------17--------14--14-17-14-----
---------------16b-----------------------------------------16b----
-14h16p14----14---------------------------------------------------
-----------16-----------------------------------------------------

----------------------------14------------------------------------
14-17-14---14-17-14--14---14--14----------------------------------
------16b--------16b-16b------16b--16-14--14----------------------
----------------------------------------16---16-14--14------------
--------------------------------------------------16---16-14--14v-
------------------------------------------------------------17----

After I spent two weeks bustin' out trying to figure this out, my 
friend told me he had the book, so I checked it, changed one note, 
and braught this to you.

key-
pb=prebend
b=bend
v=vibrato 
h=hammer
p=pull
            
Submit corrections


        Foxy Lady lessons Hard to play? Try these video lessons and learn fast Foxy Lady lessons
        
↑ Back to top | Tablatures and chords for acoustic guitar and electric guitar, ukulele, drums are parodies/interpretations of the original songs. You may use it for private study, scholarship, research or language learning purposes only