» » »

Jimi Hendrix - Cocaine Tabs

Artists:  A B C D E F G H I J K L M N O P Q R S T U V W X Y Z # 

Cocaine Tabs

(ver. 1) Click to play this song!
Jimi Hendrix
 Rating:
4/5 (4 votes)

 Cocaine lessons Tabs too difficult? Try these video lessons and learn fast
 
                E|---------------------
B|---------------------
G|-7-7-*-7-5-4-3-------
D|-7-7-*-7-7-6-5-------
A|-5-5-*-5-7-6-5-0-3P0-
E|-5-5-*-5-5-4-3-------

E|---------------------
B|---------------------
G|-7-7-*-7-5-4-3-------
D|-7-7-*-7-7-6-5-0-3P0-
A|-5-5-*-5-7-6-5-------
E|-5-5-*-5-5-4-3-------

E|---------------------
B|---------------------
G|-7-7-*-7-5-4-3-------
D|-7-7-*-7-7-6-5-------
A|-5-5-*-5-7-6-5-0-3P0-
E|-5-5-*-5-5-4-3-------

E|---------------------
B|---------------------
G|-7-7-*-7-5-4-3-------
D|-7-7-*-7-7-6-5-0-3P0-
A|-5-5-*-5-7-6-5-------
E|-5-5-*-5-5-4-3-------

E|---------------------
B|---------------------
G|-7-7-*-7-5-4-3-------
D|-7-7-*-7-7-6-5-------
A|-5-5-*-5-7-6-5-0-3P0-
E|-5-5-*-5-5-4-3-------

E|---------------------
B|---------------------
G|-7-7-*-7-5-4-3-------
D|-7-7-*-7-7-6-5-0-3P0-
A|-5-5-*-5-7-6-5-------
E|-5-5-*-5-5-4-3-------

E|---------------------
B|---------------------
G|-7-7-*-7-5-4-3-------
D|-7-7-*-7-7-6-5-------
A|-5-5-*-5-7-6-5-0-3P0-
E|-5-5-*-5-5-4-3-------

E|---------------------
B|---------------------
G|-7-7-*-7-5-4-3-------
D|-7-7-*-7-7-6-5-0-3P0-
A|-5-5-*-5-7-6-5-------
E|-5-5-*-5-5-4-3-------

E|---------------------
B|---------------------
G|-9-9-*-9-7-6-5-------
D|-9-9-*-9-9-8-7-------
A|-7-7-*-7-9-8-7-0-5P0-
E|-7-7-*-7-7-6-5-------

E|---------------------
B|---------------------
G|-9-9-*-9-7-6-5-------
D|-9-9-*-9-9-8-7-0-5P0-
A|-7-7-*-7-9-8-7-------
E|-7-7-*-7-7-6-5-------

E|---------------------
B|---------------------
G|-9-9-*-9-7-6-5-------
D|-9-9-*-9-9-8-7-------
A|-7-7-*-7-9-8-7-0-5P0-
E|-7-7-*-7-7-6-5-------

E|---------------------
B|---------------------
G|-9-9-*-9-7-6-5-------
D|-9-9-*-9-9-8-7-0-5P0-
A|-7-7-*-7-9-8-7-------
E|-7-7-*-7-7-6-5-------

E|---------------------
B|---------------------
G|-9-9-*-9-7-6-5-------
D|-9-9-*-9-9-8-7-------
A|-7-7-*-7-9-8-7-0-5P0-
E|-7-7-*-7-7-6-5-------

E|---------------------
B|---------------------
G|-9-9-*-9-7-6-5-------
D|-9-9-*-9-9-8-7-0-5P0-
A|-7-7-*-7-9-8-7-------
E|-7-7-*-7-7-6-5-------

E|---------------------
B|---------------------
G|-9-9-*-9-7-6-5-------
D|-9-9-*-9-9-8-7-------
A|-7-7-*-7-9-8-7-0-5P0-
E|-7-7-*-7-7-6-5-------

E|---------------------
B|---------------------
G|-9-9-*-9-7-6-5-------
D|-9-9-*-9-9-8-7-0-5P0-
A|-7-7-*-7-9-8-7-------
E|-7-7-*-7-7-6-5-------
            
Submit corrections


        Cocaine lessons Hard to play? Try these video lessons and learn fast Cocaine lessons
        
↑ Back to top | Tablatures and chords for acoustic guitar and electric guitar, ukulele, drums are parodies/interpretations of the original songs. You may use it for private study, scholarship, research or language learning purposes only