» » »

Jimi Hendrix - Foxy Lady Bass

Artists:  A B C D E F G H I J K L M N O P Q R S T U V W X Y Z # 

Foxy Lady Bass

(ver. 2) Click to play this song!
Jimi Hendrix
 Rating:
4/5 (4 votes)

 Foxy Lady lessons Tabs too difficult? Try these video lessons and learn fast
 
                I play it this way and it sounds fine with it

Tuning : Standard


-----------------------------------
Foxey Lady Bassline - Jimi Hendrix
-----------------------------------

INTRO

G|---------------------------------------------------------------|
D|-----4-4----------------------4-4------------------------------|
A|----------------2--2-3-4------------------2--2-3-4-------------|
E|-2-2-----2-2--5----------2-2------2-2---5----------------------|



VERSE 1

G|---------------------------------------------------------------|
D|------4-4----------------------4-4--2-------4------------------|
A|-----------------2--2-3-2-------------4---------2-3-4----------|
E|--2-2-----2-2--5-----------2-2----------2-2---5----------------|

G|---------------------------------------------------------------|
D|-----4-4---------------------4-4--2------4---------------------|
A|----------------2--2-3-4-------------4-----------2-3-4/--------|
E|-2-2-----2-2--5----------2-2-----------2----2--5---------------|


CHORUS

G|---------------------------------------------------------------|
D|----------------------------------------7h9-9------------------|
A|-7h9--9-7h9--9-7h9--9-7h9--9--7-7-7-7---------7--7h8-----------|
E|--------------------------------------7------------------------|

G|---------------------------------------------------------------|
D|---------------------------------------------------------------|
A|-9-9-9-9---9-9-9-9--7--7-7-7--7-7\----5-6-7--9-9-9-9--9-9-9-9--|
E|----------------------------------7-7--------------------------|

G|---------------------------------------------------------------|
D|-----------------------4--7--------4-4-------------------------|
A|-7--7-7-7--7---6-7--8\-----7---------------------2--3-4-4------|
E|-------------7--------------5\2--2-----0--2-2--5---------------|

G|---------------------------------------------------------------|
D|------4-4---2--------------------------------------------------|
A|--------------4------------2---3---4---------------------------|
E|-2--2------------2--2--2-5-------------------------------------|


VERSE 2
G|---------------------------------------------------------------|
D|------4-4----------------------4-4--2-------4------------------|
A|-----------------2--2-3-2-------------4---------2-3-4----------|
E|--2-2-----2-2--5-----------2-2----------2-2---5----------------|

G|---------------------------------------------------------------|
D|-----4-4---------------------4-4--2------4---------------------|
A|----------------2--2-3-4-------------4-----------2-3-4/--------|
E|-2-2-----2-2--5----------2-2-----------2----2--5---------------|


CHORUS

G|---------------------------------------------------------------|
D|----------------------------------------7h9-9------------------|
A|-7h9--9-7h9--9-7h9--9-7h9--9--7-7-7-7---------7--7h8-----------|
E|--------------------------------------7------------------------|

G|---------------------------------------------------------------|
D|---------------------------------------------------------------|
A|-9-9-9-9---9-9-9-9--7--7-7-7--7-7\----5-6-7--9-9-9-9--9-9-9-9--|
E|----------------------------------7-7--------------------------|

G|---------------------------------------------------------------|
D|-----------------------4--7--------4-4-------------------------|
A|-7--7-7-7--7---6-7--8\-----7---------------------2--3-4-4------|
E|-------------7--------------5\2--2-----0--2-2--5---------------|

G|---------------------------------------------------------------|
D|------4-4---2--------------------------------------------------|
A|--------------4------------2---3---4---------------------------|
E|-2--2------------2--2--2-5-------------------------------------|


SOLO

G|---------------------------------------------------------------|
D|------4-4----------------------4-4--2-------4------------------|
A|-----------------2--2-3-2-------------4---------2-3-4----------|
E|--2-2-----2-2--5-----------2-2----------2-2---5----------------|

G|---------------------------------------------------------------|
D|-----4-4---------------------4-4--2------4---------------------|
A|----------------2--2-3-4-------------4-----------2-3-4/--------|
E|-2-2-----2-2--5----------2-2-----------2----2--5---------------|


CHORUS

G|---------------------------------------------------------------|
D|----------------------------------------7h9-9------------------|
A|-7h9--9-7h9--9-7h9--9-7h9--9--7-7-7-7---------7--7h8-----------|
E|--------------------------------------7------------------------|

G|---------------------------------------------------------------|
D|---------------------------------------------------------------|
A|-9-9-9-9---9-9-9-9--7--7-7-7--7-7\----5-6-7--9-9-9-9--9-9-9-9--|
E|----------------------------------7-7--------------------------|

G|---------------------------------------------------------------|
D|-----------------------4--7--------4-4-------------------------|
A|-7--7-7-7--7---6-7--8\-----7---------------------2--3-4-4------|
E|-------------7--------------5\2--2-----0--2-2--5---------------|

G|---------------------------------------------------------------|
D|------4-4---2--------------------------------------------------|
A|--------------4------------2---3---4---------------------------|
E|-2--2------------2--2--2-5----------------------------/15\-----|


OUTRO

G|---------------------------------------------------------------|
D|------X--4-4-------------------X-4-4---------------------------|
A|---------------------2-3-4---------------------2-3-4-----------|
E|-2-2---------2-2---5-------2-2-------0--2-2--5-----------------|

G|--------------------------------------2------------------------|
D|-----4-4-----4-----------------4-4-----2---------4-4-----------|
A|--------------------2-/3-4--------------2--4-------------------|
E|-2-2-----2-2---2--5--------2-2-----2-2-------2-2---------------|

G|--------2-------------------------2----------------------------|
D|---------2-----------0-4--4--------2---------X-4--4------------|
A|----------2--3h4----------------0---2--4-----------------------|
E|-2-2--2----------2-2--------2-2----------2-2-------------------|

G|-----2-----------------------------2---------------------------|
D|------2------------X-4--4-------4---2--------------------------|
A|-------2---3h4-----------------------2~------------------------|
E|-2-2-----------2-2--------2--2---------------------------------|


And there you have it enjoy

-RipDimeX
            
Submit corrections


        Foxy Lady lessons Hard to play? Try these video lessons and learn fast Foxy Lady lessons
        
↑ Back to top | Tablatures and chords for acoustic guitar and electric guitar, ukulele, drums are parodies/interpretations of the original songs. You may use it for private study, scholarship, research or language learning purposes only