» » »

Jimi Hendrix - Cocaine Tabs

Artists:  A B C D E F G H I J K L M N O P Q R S T U V W X Y Z # 

Cocaine Tabs

(ver. 3) Click to play this song!
Jimi Hendrix
 Rating:
4/5 (4 votes)

 Cocaine lessons Tabs too difficult? Try these video lessons and learn fast
 
                Jimi Hendrix - Cocaine

This probably isnt the EXACT way to play this song, as most people look too much into
Hendrix songs and then get it all outta whack, which is wat I have found, so I decided
to just tab out the most basic of what I could hear in this song..... enjoy

I don't even know if this song is actually by Jimi coz it doesn't really sound like him...
But then you know if you hear this song and doesn't sound like Jimi, then this is the 
tab for it ;)

Intro	
		    ~
B-----------------------------
G-7-7-5-7--------------------
D----------7--6--5--0-3-0---

then when the next wierd bit comes in, play like this
                      ~~	
B-7-7-5-7--------------6-----
G-7-7-5-7-7--6--5---/7---7---
D---------7--6--5-------------

Chorus thing (I've been waiting so long.....)
these are the chords used... but u kinda gotta snap at em a few times before the next
chord if you know what i mean
   C   G   A
b-------------
G-5----------
D-5--5--7---
A-3--5--7---
E----3--5---


Solo
              ~	~              ~      ~
e-------------7---------------------------------------------------------------
B-9b-9b--8-9b----9b-9b--8-10--------------------------------------------------
G----------------------------------9brp7-9-7-9b-7--------7h9-9br9br9-7h9p7----
D---------------------------------------------------7h9-----------------------

		  ~
e-----------------------------------------------------------------------------
B-----------------------------------------------------------------------------
G-11b-11b-11b-11b-12--10-----10b---------9b-------7h9---9b------7h9-9b--10b-9b
D-------------------------12------10-12-------7h9------------7h9--------------	             ~               ~	           ~	  ~	   
e-------------------------------------------------x-10---------------8--------8---
B-----------------8b-7----7----7----------7------------7---7---9b----9--7----7--9b-
G--7-9--7h9p7---------7---------7---7-------------------7-----------------8-------
D---------------------------------9----------------------------------------------
 
      ~	 	         ~				   ~
e-----------10------------------------------7h9p7h10p7----------------8-----10b-
B--7----9b-----9-9p7---7--------7--9--9b---------------7-9--7h9p7--9b----10------
G----8----------------8----8-------------------------------------------------------
D------------------------------------------------------------------------------
		     ~			   ~    ~
e-13--10p8--------------------------------------------------------------------------
B------------10--9b--7-------------------------------------------------------------
G------------------------11--8-11---12b--12p10-----10------------------------------
D----------------------------------------------12------12------------------------
            
Submit corrections


        Cocaine lessons Hard to play? Try these video lessons and learn fast Cocaine lessons
        
↑ Back to top | Tablatures and chords for acoustic guitar and electric guitar, ukulele, drums are parodies/interpretations of the original songs. You may use it for private study, scholarship, research or language learning purposes only