» » »

Jimi Hendrix - Cocaine Tabs

Artists:  A B C D E F G H I J K L M N O P Q R S T U V W X Y Z # 

Cocaine Tabs

(ver. 2) Click to play this song!
Jimi Hendrix
 Rating:
4/5 (4 votes)

 Cocaine lessons Tabs too difficult? Try these video lessons and learn fast
 
                ------------------------------------------------------
------------------------------------------------------
------7--7--5--7--------------------------------------
------5--5--3--5--7--6--5--0--3--0--------------------
------------------5--4--3--0--1--0--------------------
------------------------------------------------------

------------------------------------------------------
------------------------------------------------------
------7--7--5--7--------------------------------------
------5--5--3--5--7--6--5--0--3--0--------------------
------------------5--4--3--0--1--0--------------------
------------------------------------------------------

------------------------------------------------------
------------------------------------------------------
------7--7--5--7--------------------------------------
------5--5--3--5--7--6--5--0--3--0--------------------
------------------5--4--3--0--1--0--------------------
------------------------------------------------------

------------------------------------------------------
------------------------------------------------------
------7--7--5--7--------------------------------------
------5--5--3--5--7--6--5--0--3--0--------------------
------------------5--4--3--0--1--0--------------------
------------------------------------------------------
            
Submit corrections


        Cocaine lessons Hard to play? Try these video lessons and learn fast Cocaine lessons
        
↑ Back to top | Tablatures and chords for acoustic guitar and electric guitar, ukulele, drums are parodies/interpretations of the original songs. You may use it for private study, scholarship, research or language learning purposes only