» » »

Jesus Culture - One Thing Remains Tabs

Artists:  A B C D E F G H I J K L M N O P Q R S T U V W X Y Z # 

One Thing Remains Tabs

(ver. 3) Click to play this song!
Jesus Culture
 Rating:
2.3/5 (23 votes)

 One Thing Remains lessons Tabs too difficult? Try these video lessons and learn fast
 
                Tuning: Standard
Intro (only portion of the song capoed to 4)
e|---------------------------------------------------------------------------|
B|------7-------7-------7-----7----------------------------------------------|
G|----0---0---0---0---6---6-6---0--------------------------------------------|
D|--6-------0-------0--------------------------------------------------------|
A|---------------------------------------------------------------------------|
E|---------------------------------------------------------------------------|
Chorus (depending on where you are in the song you can strum what you want)
e|---------------------------------------------------------------------------|
B|---------------------------------------------------------------------------|
G|----------------------------------------------4----------------------------|
D|--------6---------------------2---------------4-----------------4----------|
A|--------6---------------------2---------------2-----------------4----------|
E|--------4---------------------0---------------------------------2----------|
     Your love never fails  It never gives up  Never runs out on me
Verse 2
e|---------------------------------------------------------------------------|
B|---------------------------------------------------------------------------|
G|---------4-4-4-4-----------------------------------------------------------|
D|-2-2-2-2-4-4-4-4-4-4-4-4-4-4-4-4-------------------------------------------|
A|-2-2-2-2-2-2-2-2-4-4-4-4-4-4-4-4-------------------------------------------|
E|-0-0-0-0---------2-2-2-2-2-2-2-2-------------------------------------------|
Epic Solo (feel free to get fancy with it I don't because its frowned upon where I play)
e|---------------------------------------------------------------------------|
B|-9-9-9-9-9-9-9-9-11-11-11-11-11-11-11-11-----------------------------------|
G|-9-9-9-9-9-9-9-9-11-11-11-11-11-11-11-11-----------------------------------|
D|-9-9-9-9-9-9-9-9-11-11-11-11-11-11-11-11-----------------------------------|
A|-7-7-7-7-7-7-7-7-9--9--9--9--9--9--9--9------------------------------------|
E|---------------------------------------------------------------------------|
Bridge
e|---------------------------------------------------------------------------|
B|---------------------------------------------------------------------------|
G|-----------------4-4-4-4-4-4-4-4-----------------6-6-6-6-6-6-6-6-----------|
D|-2-2-2-2-2-2-2-2-4-4-4-4-4-4-4-4-4-4-4-4-4-4-4-4-6-6-6-6-6-6-6-6-----------|
A|-2-2-2-2-2-2-2-2-2-2-2-2-2-2-2-2-4-4-4-4-4-4-4-4-4-4-4-4-4-4-4-4-----------|
E|-0-0-0-0-0-0-0-0-----------------2-2-2-2-2-2-2-2---------------------------|

e|---------------------------------------------------------------------------|
B|---------------------------------------------------------------------------|
G|-----------------4-4-4-4-4-4-4-4-------------------------------------------|
D|-2-2-2-2-2-2-2-2-4-4-4-4-4-4-4-4-4-4-4-4-4-4-4-4-4-4-4-4-4-4-4-4-----------|
A|-2-2-2-2-2-2-2-2-2-2-2-2-2-2-2-2-4-4-4-4-4-4-4-4-4-4-4-4-4-4-4-4-----------|
E|-0-0-0-0-0-0-0-0-----------------2-2-2-2-2-2-2-2-2-2-2-2-2-2-2-2-----------|            
Submit corrections


        One Thing Remains lessons Hard to play? Try these video lessons and learn fast One Thing Remains lessons
        
↑ Back to top | Tablatures and chords for acoustic guitar and electric guitar, ukulele, drums are parodies/interpretations of the original songs. You may use it for private study, scholarship, research or language learning purposes only