» » »

Jesus Culture - Fierce Tabs

Artists:  A B C D E F G H I J K L M N O P Q R S T U V W X Y Z # 

Fierce Tabs

(ver. 2) Click to play this song!
Jesus Culture
 Rating:
4.3/5 (6 votes)

 Fierce  lessons Tabs too difficult? Try these video lessons and learn fast
 
                [Intro]
e|---2-----------2--------------------------------|
B|-----5--3-2------5------------------------------|
G|-2-----------2------1/5-7-2---------------------|
D|------------------------------------------------|
A|------------------------------------------------|
E|------------------------------------------------|

[Verse 1]
(no electric if playing use clean sound)
          D                     A
Before I call, before I ever cry
            F#m                          Esus4
You answer me from where the thunder hides
            D                           A
I cannot run, this heart I'm tethered to
                F#m                 Esus4
With every step,  I collide with You

[Chorus]
(If you have an acoustic guitarist playing this just use
barre or power chords)
D
  Like a tidal wave 
A
  Crashing over me
F#m7
   Rushing in to meet me here
Esus4
   Your love is fierce
D2
   Like a hurricane 
A
   That I can't escape
F#m7
   Tearing through the atmosphere
Esus4
   Your love is fierce

[Verse 2] turn down drive(explained in video)
sixteenth notes. 4 per beat.
e|---------------------------------------------------------------|
B|---------------------------------------------------------------|
G|-2-2-2-2-2-2-2-2-2-2-2-2-2-2-2-2-------------------------------|
D|---------------------------------2-2-2-2-2-2-2-2-2-2-2-2-2-2-2-2|
A|---------------------------------------------------------------|
E|---------------------------------------------------------------|

e|---------------------------------------------------------------|
B|---------------------------------------------------------------|
G|---------------------------------------------------------------|
D|-4-4-4-4-4-4-4-4-4-4-4-4-4-4-4-4-------------------------------|
A|---------------------------------------------------------------|
E|---------------------------------------------------------------|

[Chorus]
D
  Like a tidal wave 
A
  Crashing over me
F#m7
   Rushing in to meet me here
Esus4
   Your love is fierce
D2
   Like a hurricane 
A
   That I can't escape
F#m7
   Tearing through the atmosphere
Esus4
   Your love is fierce

[Bridge]
This is not in the right key as you have to put it in drop C to get that.
e|---------------------------------------------------------------|
B|---------------------------------------------------------------|
G|---------------------------------------------------------------|
D|---------------------------------------------------------------|
A|---------------------------------------------------------------|
E|-1-1-1-1-1-1-1-1-1-1-1-1-1-1-1-1-1-1-1-1-1-1-1-1-1-1-1-1-1-----|
You chase me down, You seek me out
e|---------------------------------------------------------------|
B|---------------------------------------------------------------|
G|---------------------------------------------------------------|
D|---------------------------------------------------------------|
A|---------------------------------------------------------------|
E|-5-5-5-5-5-5-5----3-3-3-3-3-3-3-3-3-3-3-3-3-3-3-3-3-3-3--------|

How could I be      Lost when You have called me found?
[Chorus] Play the first half as you would normally but right before
"Like a hurricane" play the intro twice.

e|---2-----------2--------------------------------|
B|-----5--3-2------5------------------------------|
G|-2-----------2------1/5-7-2---------------------|
D|------------------------------------------------|
A|------------------------------------------------|
E|------------------------------------------------|            
Submit corrections


        Fierce  lessons Hard to play? Try these video lessons and learn fast Fierce  lessons
        
↑ Back to top | Tablatures and chords for acoustic guitar and electric guitar, ukulele, drums are parodies/interpretations of the original songs. You may use it for private study, scholarship, research or language learning purposes only