» » »

Jesus Culture - Awaken Me Tabs

Artists:  A B C D E F G H I J K L M N O P Q R S T U V W X Y Z # 

Awaken Me Tabs

(ver. 1) Click to play this song!
Jesus Culture
 Rating:
4/5 (4 votes)

 Awaken Me lessons Tabs too difficult? Try these video lessons and learn fast
 
                You can play it with Capo on 3rd fret but I’ll put it in regular tab so you can play 
with or without.
Intro:x2
E---------------------------------------------------------------------------'
B-6p3--------------3--6p3------------------3-6p3-------------3----10----15--'
G-----5p3----3h5p3--------5p3------3h5p3--------5p3----3h5p3--5s7---7s10----'
D---------5p3-----------------5p3-------------------5p3---------------------'
A---------------------------------------------------------------------------'
E---------------------------------------------------------------------------'
VERSE:(one sustained chord)
E--------------'
B---6----------'
G---3----------'
D---5----------'
A---6----------'
E--------------'

PRECHORUS:X2

E---------------------------------------------------------------------------'
B-6p3--------------3--6p3------------------3-6p3-------------3----10----15--'
G-----5p3----3h5p3--------5p3------3h5p3--------5p3----3h5p3--5s7---7s10----'
D---------5p3-----------------5p3-------------------5p3---------------------'
A---------------------------------------------------------------------------'
E---------------------------------------------------------------------------'

CHORUS: THESE ARE THE CHORDS THE LEAD GUITARIST PLAYS, U'LL HAVE TO FIND OUT THE RHYTHM 
OF THESE CHORDS BY LISTENING TO IT.

E--------'---------'
B--11----'---10----'
G--10----'---10----'
D--12----'---12----'
A--------'---------'
E--------'---------'

BRIDGE:ALL MUTED (THE GUITARIST USES DELAY ON HIS PEDAL, THATS WHY IT SOUND LIKE HE 
PLAYING LOTS OF NOTES)


E-------------------------------'
B-------------------------------'
G--3-3--3-3--3-3--3-3---5-7-----'
D-------------------------------'
A-------------------------------'
E-------------------------------'

 THANKS PLEASE RATE:D
            
Submit corrections


        Awaken Me lessons Hard to play? Try these video lessons and learn fast Awaken Me lessons
        
↑ Back to top | Tablatures and chords for acoustic guitar and electric guitar, ukulele, drums are parodies/interpretations of the original songs. You may use it for private study, scholarship, research or language learning purposes only