» » »

Jeremy Soule - Harvest Dawn Tabs

Artists:  A B C D E F G H I J K L M N O P Q R S T U V W X Y Z # 

Harvest Dawn Tabs

(ver. 1) Click to play this song!
Jeremy Soule
 Rating:
4.5/5 (8 votes)

 Harvest Dawn lessons Tabs too difficult? Try these video lessons and learn fast
 
                
For a solo guitar

e|-5-------1-0-1--|-3--------------|----------------|----------------|
B|-----3----------|-----3-------3--|-1--------------|----------------|
G|-2-------0------|----------------|-----2---2------|-0--------------|
D|----------------|-3--------------|-------------3--|----------------|
A|----------------|----------------|---------0------|----------------|
E|----------------|----------------|-1--------------|-3--------------|

e|-5-------1-0-1--|-3-5-1----------|----------------|----------------|
B|-----3----------|-------------5--|-3-------1------|-3--------------|
G|-2-------0------|-------------2--|-----2-------2--|----------------|
D|----------------|-3--------------|-3--------------|-0--------------|
A|----------------|----------------|---------3------|----------------|
E|----------------|----------------|----------------|----------------|

e|-5---3----------|----------------|---------5------|-1--------------|
B|-3---1---1---3--|-5---6----------|-3---1-------1--|-----3----------|
G|-------------3--|-2---3----------|-3---2----------|-----0----------|
D|----------------|----------------|----------------|----------------|
A|----------------|----------------|----------------|----------------|
E|----------------|----------------|----------------|----------------|

e|------------5---|-----1-0-1---3--|----------------|----------------|
B|------------3---|-3--------------|-3-------3---1--|---------1---3--|
G|------------2---|-----0----------|---------2---2--|-2---2-------2--|
D|------------0---|-------------3--|----------------|-----3-------0--|
A|------------0---|----------------|----------------|----------------|
E|----------------|----------------|----------------|----------------|

e|-------------5--|-----5----------|-------------5--|-----5----------|
B|----------------|-8-----6-5--6---|-5--------------|-8-------6-5----|
G|-------------7--|--------------7-|-----5---7------|-------------7--|
D|----------------|----------------|-------------0--|----------------|
A|----------------|----------------|----------------|----------------|
E|----------------|----------------|----------------|----------------|

e|----------------|-----8---6-5----|-5--------------|----------------|
B|-8--------------|-8-----------8--|-----6---5------|-8---6---5---5--|
G|-0--------------|-5--------------|-------------7--|-0---------7----|
D|----------------|----------------|-7--------------|----------------|
A|----------------|----------------|----------------|----------------|
E|----------------|----------------|----------------|----------------|

e|----------------|-------------5v-|----10v---------|---10-8---------|
B|----------------|----------------|----------------|-------------8--|
G|-5---7----------|5h7-------------|----------------|-7--------5-----|
D|----------------|----------------|----------------|----------------|
A|-3---5----------|----------------|----------------|----------------|
E|----------------|----------------|------------10--|----------8-----|

e|----------------|----------------|----------------|---------1------|
B|-----10--10*----|-----3---5---6--|----------------|-------------3--|
G|----------------|----------------|-7---5----------|---------3------|
D|-5---7----------|-0--------------|---------7------|----------------|
A|----------------|----------------|----------------|----------------|
E|----------------|----------------|----------------|----------------|

e|-----1-0--------|----------------|---5------------|----------------|
B|---------3------|----------------|-----8----------|-----5---6-5----|
G|-3--------------|----------------|-7-------5---7--|-------------7--|
D|---------0------|----------------|-0-----------5--|----------------|
A|----------------|----------------|----------------|----------------|
E|----------------|----------------|----------------|----------------|

e|----------------|-1-3-5----------|-5-8------------|----------------|
B|----5-6---------|----------------|-----8----------|----------------|
G|--7-------5-----|-0---2----------|----------------|---7-5----------|
D|----------------|---------0------|---------5---7--|----------------|
A|----------------|----------------|----------------|-5---3----------|
E|------6---------|----------------|----------------|----------------|

e|-------------10-|----------------|----------------|-5-------1-0-1--|
B|8p6-------------|8p6-------------|----------------|-----3----------|
G|----9-7------7--|----9-7---------|----------------|-2-------0------|
D|------0---------|------0---------|----------------|----------------|
A|----------------|----------------|----------------|----------------|
E|----------------|----------------|----------------|----------------|

e|-3--------------|----------------|----------------|-5-------1-0-1--|
B|-----3-------3--|-1--------------|----------------|-----3----------|
G|----------------|-----2---2------|-0--------------|----------------|
D|-3-----------0--|-3-------0---3--|-0--------------|-0--------------|
A|----------------|----------------|----------------|---------3------|
E|----------------|----------------|----------------|----------------|

e|-3--------------|-1---0---0------|----------------|----------------|
B|-----3-------3--|-------3-----1--|-3--------------|-3-------5------|
G|----------------|----------------|----------------|----------------|
D|----------------|-3-------2------|-0--------------|-0--------------|
A|-1-----------1--|----------------|----------------|----------------|
E|----------------|----------------|----------------|----------------|

e|---------5---3--|----------------|----------------|----------------|
B|-6--------------|----------------|-3--------------|-3-------5------|
G|----------------|-0--------------|----------------|----------------|
D|-3--------------|----------------|----------------|-0--------------|
A|----------------|----------------|----------------|----------------|
E|----------------|-3--------------|----------------|----------------|

e|---------5---3--|-3--------------|-----3*---------|
B|-6--------------|----------------|-3--------------|
G|----------------|-------------4--|----------------|
D|-3--------------|---------5------|----------------|
A|----------------|-----5----------|----------------|
E|----------------|-3--------------|----------------|

h - hammer on
p - pull off
* - harp harmonic
v - vibrato


Please give me credit if you use the tab for a video
            
Submit corrections


        Harvest Dawn lessons Hard to play? Try these video lessons and learn fast Harvest Dawn lessons
        
↑ Back to top | Tablatures and chords for acoustic guitar and electric guitar, ukulele, drums are parodies/interpretations of the original songs. You may use it for private study, scholarship, research or language learning purposes only