» » »

Jeff Buckley - Hallelujah Tabs

Artists:  A B C D E F G H I J K L M N O P Q R S T U V W X Y Z # 

Hallelujah Tabs

(ver. 2) Click to play this song!
Jeff Buckley
 Rating:
4.3/5 (15 votes)

 Hallelujah lessons Tabs too difficult? Try these video lessons and learn fast
 
                [Verse]

e|------------------------------------|--------------------------------------|
B|-0--3-----3--3-----3--5-----5--5----|-0--3-----3--3-----3--5-----5--5-----3|
G|----0--0--------0-----4--------4----|----0--0--------0-----4--------4------|
D|-------------0-----------5--------5-|-------------0-----------5--------4---|
A|------------------------------------|--------------------------------------|
E|----3--------3--------0-------------|-2--3--------3--------0---------------|

e|------------------------------------|--------------------------------------|
B|-5-----------5-----5--------5-----3-|----0--3-----3-----3-----3------------|
G|-0--0-----------0-----0--------0----|-0--------0-----------0-----0---------|
D|-------2-----------------2----------|-------------------------------0-----0|
A|-3--------3--------3--------3-----2-|--------------------------------------|
E|------------------------------------|-------3--------3--------3--------3---|

e|------------------------------------|--------------------------------------|
B|-0--3-----3--3-----3--5-----5--7----|----8-----8-----8--8--8-----8--10----8|
G|----0--0-----------------0--------0-|-7-----(0)--------------(0)-------(0)-|
D|-------------0----------------------|--------------------------------------|
A|----------------------3--------5----|----7--------7--7--5------------------|
E|----3-----------3-------------------|----------------------8--------8------|

e|---------------------------------------------------------------------------|
B|-10-----10----10-----12--12------12\10--10\8--8------------------------0--3|
G|----(0)----------(0)-------------------------------------------------------|
D|---------------------------------------------------------------------------|
A|-9---------9---------11------11---------7--------7-------------------------|
E|----------------------------------------------------7--0-------------------|

[Chorus]

e|-------------------------------------|-------------------------------------|
B|--5--------5-----------5-----5-----3-|-0--------0-----------0-----0-----3--|
G|--0--0--------0-----------0-----0----|-0--0--------0-----------0-----0-----|
D|--------2--------2-------------------|-2-----2--------2--------------------|
A|--3-----------------3--------3-----2-|-2-----------------------------------|
E|-------------------------------------|-------------------0-----------------|

e|-------------------------------------|-------------------------------------|
B|--5--------5-----------------5-----3-|-0-----------0h1--0------------------|
G|--0--0--------0----------0------0----|-0--0----------------2--------------0|
D|-------------------------------------|-------0----------------0------------|
A|--3-----3--------2/3--3------3-----2-|---------------------------0-----0---|
E|-------------------------------------|-3--------3----------2--------2------|

[Post-Chorus]

e|-------------------------------------|-------------------------------------| 
B|-----------3-----------------3-------|----------3-----------------3--------| 
G|--0-----------0-----------0-----0----|-------0-----0-----------0-----0-----| 
D|-----0-----------------0-------------|----0-----------------0--------------|  
A|-------------------------------------|-------------------------------------| 
E|--3-----3--------2--0--------------2-|-3--------------2--0--------------2--| 

            
Submit corrections


        Hallelujah lessons Hard to play? Try these video lessons and learn fast Hallelujah lessons
        
↑ Back to top | Tablatures and chords for acoustic guitar and electric guitar, ukulele, drums are parodies/interpretations of the original songs. You may use it for private study, scholarship, research or language learning purposes only