» » »

Jeff Buckley - Hallelujah Bass

Artists:  A B C D E F G H I J K L M N O P Q R S T U V W X Y Z # 

Hallelujah Bass

(ver. 1) Click to play this song!
Jeff Buckley
 Rating:
4.3/5 (29 votes)

 Hallelujah lessons Tabs too difficult? Try these video lessons and learn fast
 
                [Verse 1]
  1 + 2 + 3 + 4 +  1 + 2 + 3 + 4 +  1 + 2 + 3 + 4 +  1 + 2 + 3 + 4 +  1 + 2 + 3 + 4 +  1 + 2 + 3 + 4 +
G|----------------|----------------|----------------|----------------|----------------|----------------|
D|----------------|----------------|----------------|----------------|----------------|--------------2-|
A|3-----2-0-----2-|3-----2-0-----2-|3-----2-0-----2-|3-----2-0-----2-|3-----2-0-----2-|3-----2-0-------|
E|----------------|----------------|----------------|----------------|----------------|----------------|

[Bridge]
  1 + 2 + 3 + 4 +  1 + 2 + 3 + 4 +  1 + 2 + 3 + 4 +  1 + 2 + 3 + 4 +  1 + 2 + 3 + 4 +  1 + 2 + 3 + 4 +
G|----------------|----------------|----------------|2---------------|0---0---1---1---|2---2---2---2-0-|
D|3-----------5---|2---5---5---5---|2---2---3---5---|--------3-------|----------------|----------------|
A|----------------|----------------|----------------|----------------|----------------|----------------|
E|----------------|----------------|----------------|----------------|----------------|----------------|

[Chorus]
  1 + 2 + 3 + 4 +  1 + 2 + 3 + 4 +  1 + 2 + 3 + 4 +  1 + 2 + 3 + 4 + 
G|----------------|2-------2-------|----------------|----------------|
D|3-------3---3---|----------------|3-------3-------|2---2-3-2-0-----|
A|----------------|----------------|----------------|----------------|
E|----------------|----------------|----------------|----------------|

[Verse 1]
  1 + 2 + 3 + 4 +  1 + 2 + 3 + 4 +  1 + 2 + 3 + 4 +  1 + 2 + 3 + 4 +
G|----------------|----------------|----------------|----------------|
D|----------------|----------------|----------------|--------------2-|
A|3-----2-0-----2-|3-----2-0-----2-|3-----2-0-----2-|3-----2-0-------|
E|----------------|----------------|----------------|----------------|

[Bridge]
  1 + 2 + 3 + 4 +  1 + 2 + 3 + 4 +  1 + 2 + 3 + 4 +  1 + 2 + 3 + 4 +  1 + 2 + 3 + 4 +  1 + 2 + 3 + 4 +
G|----------------|----------------|----------------|2-----------2---|0---0---1---1---|2---2---5---2-0-|
D|3-------3---5---|2---5---5---0---|--------3---5---|----2---3-------|----------------|----------------|
A|----------------|----------------|3---------------|----------------|----------------|----------------|
E|----------------|----------------|----------------|----------------|----------------|----------------|

[Chorus]
  1 + 2 + 3 + 4 +  1 + 2 + 3 + 4 +  1 + 2 + 3 + 4 +  1 + 2 + 3 + 4 +  
G|----------------|2-------2-------|----------------|----------------|
D|3-------3---3---|----------------|3-------3---3---|2-------0-------|
A|----------------|----------------|----------------|----------------|
E|----------------|----------------|----------------|----------------|

[Verse 1]
  1 + 2 + 3 + 4 +  1 + 2 + 3 + 4 +  1 + 2 + 3 + 4 +  1 + 2 + 3 + 4 +
G|----------------|----------------|----------------|----------------|
D|----------------|----------------|----------------|--------------2-|
A|3-----2-0-----2-|3-----2-0-----2-|3-----2-0-----2-|3-----2-0-------|
E|----------------|----------------|----------------|----------------|

[Bridge]
  1 + 2 + 3 + 4 +  1 + 2 + 3 + 4 +  1 + 2 + 3 + 4 +  1 + 2 + 3 + 4 +  1 + 2 + 3 + 4 +  1 + 2 + 3 + 4 +
G|----------------|----------------|----------------|2---------------|--------1---1-1-|2---2-------2-0-|
D|3-------3---5---|2---5---5---0---|--------3---5---|----2---3-------|0---------------|----------------|
A|----------------|----------------|3---------------|----------------|----------------|----------------|
E|----------------|----------------|----------------|----------------|----------------|----------------|

[Chorus]
  1 + 2 + 3 + 4 +  1 + 2 + 3 + 4 +  1 + 2 + 3 + 4 +  1 + 2 + 3 + 4 +  
G|----------------|2-------2-------|----------------|----------------|
D|3-------3---3---|----------------|3---------------|2-----3-2-0-----|
A|----------------|----------------|----------------|----------------|
E|----------------|----------------|----------------|----------------|

  1 + 2 + 3 + 4 +  1 + 2 + 3 + 4 +  1 + 2 + 3 + 4 +  1 + 2 + 3 + 4 +
G|----------------|----------------|----------------|----------------|
D|----------------|----------------|----------------|--------------2-|
A|3-----2-0-----2-|3-----2-0-----2-|3-----2-0-----2-|3-----2-0-------|
E|----------------|----------------|----------------|----------------|

[Bridge]
  1 + 2 + 3 + 4 +  1 + 2 + 3 + 4 +  1 + 2 + 3 + 4 +  1 + 2 + 3 + 4 +  1 + 2 + 3 + 4 +  1 + 2 + 3 + 4 +
G|----------------|----------------|----------------|2---------------|--------1---1-1-|2---2---5---2-0-|
D|3-------3---5---|2---2---5---0---|--------3---5---|--------3-------|0---0-----------|----------------|
A|----------------|----------------|3---------------|----------------|----------------|----------------|
E|----------------|----------------|----------------|----------------|----------------|----------------|

[Chorus]
  1 + 2 + 3 + 4 +  1 + 2 + 3 + 4 +  1 + 2 + 3 + 4 +  1 + 2 + 3 + 4 +  
G|----------------|2-----------2---|----------------|----------------|
D|3-------3---3---|--------3-------|3---------------|2-----3-2-0-----|
A|----------------|----------------|----------------|----------------|
E|----------------|----------------|----------------|----------------|

  1 + 2 + 3 + 4 * *  1 + 2 + 3 + 4 +  1 e + a 2 + 3 e + a 4 +  1 + 2 + 3 + 4 +  
G|------------------|----------------|------------------------|----------------|
D|3---3-------2-2-0-|----------------|2-3-------3-2-3-----3---|2---2---0---0---|
A|------------------|0-------0-------|------------------------|----------------|
E|------------------|----------------|------------------------|----------------|

  1 + 2 + 3 + 4 +  1 + 2 + 3 + 4 +  1 + 2 + 3 + 4 +  
G|----------------|----------------|----------------|
D|----------------|--------------2-|3---------------|
A|3-----2-0-----2-|3-----2-0-------|----------------|
E|----------------|----------------|----------------|

[Interlude] (Guitar Only)

[Verse 2]
  1 + 2 + 3 + 4 +  1 + 2 + 3 + 4 e + a  1 + 2 + 3 + 4 +  1 + 2 + 3 + 4 + 5 + 6 +
G|----------------|--------------------|----------------|-----------------------|
D|----2-------2---|----2-------0-------|----------------|----------------0---0--|
A|3-------0-------|3-------0---------5-|3-------3---5---|2---2-------5----------|
E|----------------|--------------------|----------------|-----------------------|

[Bridge 2]
  1 + 2 + 3 + 4 +  1 + 2 + 3 + 4 e + a  1 e + a 2 e + a 3 e + a 4 e + a  1 + 2 + 3 + 4 +  
G|----------------|2-------------------|--------0-------1-----1-1-----1-|2---2---2---2-0-|
D|--------3---3---|----2---3---------0-|0-----0-------0-----------------|----------------|
A|3---------------|--------------------|--------------------------------|----------------|
E|----------------|--------------------|--------------------------------|----------------|

  1 + 2 + 3 + 4 +  1 + 2 + 3 + 4 +  1 + 2 + 3 + 4 +  1 e + a 2 e + a 3 e + a 4 e + a 
G|----------------|--------2-------|----------------|--------------------------------|
D|3-------3---3---|----2-------2---|3-------3-------|3-----------------------5-----5-|
A|----------------|0---------------|----------------|--------------------------------|
E|----------------|----------------|----------------|--------------------------------|

[Chorus 2]
  1 e + a 2 e + a 3 e + a 4 e + a  1 e + a 2 e + a 3 e + a 4 e + a  1 e + a 2 e + a 3 e + a 4 e + a 
G|--------------------------------|--------------------------------|--------------------------------|
D|------------------------2-----5-|3-------3-------------3---------|2--------5----5-5-------0-------|
A|0-------------------------------|--------------------------------|--------------------------------|
E|--------------------------------|--------------------------------|--------------------------------|

  1 + 2 + 3 + 4 +  1 e + a 2 e + a 3 e + a 4 e + a  1 + 2 + 3 + 4 +  1 + 2 + 3 +  1 + 2 + 3 + 4 +  
G|----2-----------|--------------------------------|----------------|------------|----------------|
D|3-------3---3---|------------------------2-----5-|3---------------|3-----------|2---------------|
A|----------------|0-------0-----------------------|----------------|------------|----------------|
E|----------------|--------------------------------|----------------|------------|----------------|

  1 + 2 + 3 + 4 +  1 + 2 + 3 + 4 +  1 + 2 + 3 + 4 +  1 + 2 + 3 + 4 +   
G|----------------|----------------|----------------|----------------|
D|5---------------|3-------2---0---|----------------|3---------------|
A|----------------|----------------|0---------------|----------------|
E|----------------|----------------|----------------|----------------|

[Outro]
  1 + 2 + 3 + 4 + 5 +  1 + 2 + 3 + 4 +  1 + 2 + 3 + 4 +  1 + 2 + 3 + 4 +
G|--------------------|----------------|----------------|----------------|
D|--------------------|----------------|----------------|----------------|
A|0-------------------|----------------|----------------|3---------------|
E|--------------------|1---------------|3---------------|----------------|
            
Submit corrections


        Hallelujah lessons Hard to play? Try these video lessons and learn fast Hallelujah lessons
        
↑ Back to top | Tablatures and chords for acoustic guitar and electric guitar, ukulele, drums are parodies/interpretations of the original songs. You may use it for private study, scholarship, research or language learning purposes only