Home » J » Jeff Buckley »

Jeff Buckley - Ye Jo Halka Halka Suroor Hai Tabs

Artists:  A B C D E F G H I J K L M N O P Q R S T U V W X Y Z # 

Ye Jo Halka Halka Suroor Hai Tabs

(ver. 1) Click to play this song!
Jeff Buckley
Tuning: Open D
CAPO: 2nd Fret

e - D
B - A
G - F#
D - D
A - A
E - D

IMPORTANT: For every chord you strum all the the strings

So: 

D |--------|      
A |---5----|
F#|--------|
D |--------|
A |---5----|
D |--------|

Should be:

D |---0----|      
A |---5----|
F#|---0----|
D |---0----|
A |---5----|
D |---0----|

I've written it this way to make the tab less messy and easier to read

--------------------------------------------------------------------------------------------------------------


D  |--5-4-7-999-5s4s5-555-5s4s5-7-4----------------0-2s4s2p0-------------2s444s3s444s3s444s2p0----------|
A  |--------------------------------0-2-0-2-0-2p0-------------0-0-2-000-------------------------0h2p0---|
F# |----------------------------------------------------------------------------------------------------|
D  |--5-4-7-999-5s4s5-555-5s4s5-7-4----------------0-2s4s2p0-------------2s444s3s444s3s444s2p0----------|
A  |--------------------------------0-2-0-2-0-2p0-------------0-0-2-000-------------------------0h2p0---|
D  |----------------------------------------------------------------------------------------------------|


D  |--000-----------------------------------------------------------------------------------|
A  |--000------5-5-5-5-4-7-5-4-2-4-2-0-0-4-555-8s999-8s999-8s999s101010--141414-------------|
F# |--000-----------------------------------------------------------------------------------|
D  |--000-----------------------------------------------------------------------------------|
A  |--000------5-5-5-5-4-7-5-4-2-4-2-0-0-4-555-8s999-8s999-8s999s101010--141414-------------|
D  |--000-----------------------------------------------------------------------------------|

I'll do just a bit...                                      This is 10 not
                                                             1 and 0



D  |---------------------------------------------------------------------------------------------------------|
A  |-14s17-12s14-10s12-9s10-7s9-5s7s5--5s4s5s3s4s2s3s2p0-2-0-555-0-4-4-555-0-4-4-555-0-4-4-555-444-222-000---|
F# |---------------------------------------------------------------------------------------------------------|
D  |---------------------------------------------------------------------------------------------------------|
A  |-14s17-12s14-10s12-9s10-7s9-5s7s5--5s4s5s3s4s2s3s2p0-2-0-555-0-4-4-555-0-4-4-555-0-4-4-555-444-222-000---|
D  |---------------------------------------------------------------------------------------------------------|

                                       Do this really fast                                Song starts: Ahhhh
                                         with one strum
                                      Accuracy doesnt matter
                                     only strum the first bit
                                        on the 5th fret



            
Submit corrections

↑ Back to top | Tablatures and chords for acoustic guitar and electric guitar, ukulele, drums are parodies/interpretations of the original songs. You may use it for private study, scholarship, research or language learning purposes only