» » »

Jeff Buckley - Dream Brother Tabs

Artists:  A B C D E F G H I J K L M N O P Q R S T U V W X Y Z # 

Dream Brother Tabs

(ver. 4) Click to play this song!
Jeff Buckley
 Rating:
4.4/5 (7 votes)

 Dream Brother lessons Tabs too difficult? Try these video lessons and learn fast
 
                [Intro]

e|----------------------------------|-------------------------------------|
B|4---4-3---3---3----1---1-0-1-3---3|-4---4-3---3---3---3-1---1-0-1-3---3-|
G|--0-----0---0---0-----0--------0--|---0-----0---0---0-----0---------0---|
D|----------------------------------|-------------------------------------|
E|----------------------------------|-------------------------------------|
E|------------------------------------------------------------------------|

e|----1-------------------------1|----1---------------------1-------------|
B|4-----3---3---3-1---1-0-1-3----|4-----3---3---3-1-0-1-3-----------------|
G|--0-----0---0-----0---------0--|--0-----0---0-----------0---------------|
D|-------------------------------|----------------------------------------|
A|-------------------------------|----------------------------------------|
E|-------------------------------|----------------------------------------|            
Submit corrections


        Dream Brother lessons Hard to play? Try these video lessons and learn fast Dream Brother lessons
        
↑ Back to top | Tablatures and chords for acoustic guitar and electric guitar, ukulele, drums are parodies/interpretations of the original songs. You may use it for private study, scholarship, research or language learning purposes only