Home » J » Jason Michael Carroll »

Jason Michael Carroll - Livin Our Love Song Tabs

Artists:  A B C D E F G H I J K L M N O P Q R S T U V W X Y Z # 

Livin Our Love Song Tabs

(ver. 2) Click to play this song!
Jason Michael Carroll
i tabbed 
Tuning:Standard

Fiddle Plays this
e|---------------------------------------------------------------------------|
B|---10-----10-----8--10--8--10/12\10--8-------------------------------------|
G|----------------------------------------9--7-------------------------------|
D|---------------------------------------------------------------------------|
A|---------------------------------------------------------------------------|
E|---------------------------------------------------------------------------|

e|---------------------------------------------------------------------------|
B|---10-----10-----8--10--8--10/12\10--8-------------------------------------|
G|----------------------------------------9--7--7/9--11-12---12--11--7-------|
D|---------------------------------------------------------------------------|
A|---------------------------------------------------------------------------|
E|---------------------------------------------------------------------------|

Guitar Plays This AT The Same Time
e|---------------------------------------------------------------------------|
B|---------------------------------------------------------------------------|
G|---2-------2-----0--2--0----2/4\2---0--------------------------------------|
D|----------------------------------------2--0-------------------------------|
A|---------------------------------------------------------------------------|
E|---------------------------------------------------------------------------|

e|---------------------------------------------------------------------------|
B|---------------------------------------------------------------------------|
G|---2-------2-----0--2--0----2/4\2---0--------------------------------------|
D|----------------------------------------2--0--2--4-4/5----5--4--0----------|
A|---------------------------------------------------------------------------|
E|---------------------------------------------------------------------------|


| /  slide up
| \  slide down
| h  hammer-on
| p  pull-off
| ~  vibrato
| +  harmonic
| x  Mute note
            
Submit corrections

↑ Back to top | Tablatures and chords for acoustic guitar and electric guitar, ukulele, drums are parodies/interpretations of the original songs. You may use it for private study, scholarship, research or language learning purposes only