» » »

Janes Addiction - Ted Just Admit It Tabs

Artists:  A B C D E F G H I J K L M N O P Q R S T U V W X Y Z # 

Ted Just Admit It Tabs

(ver. 3) Click to play this song!
Janes Addiction
 Rating:
4.2/5 (30 votes)

 Ted Just Admit It lessons Tabs too difficult? Try these video lessons and learn fast
 
                Main Riff (Clean)
e|--------------------------------------------------|
B|--------------------------------------------------|
G|--------------------------------------------------|
D|-7p5-7p5-7p5-0-4-2-2-2-0-0-7p5-0-4-2-2-2-0-0------|
A|-7p5-7p5-7p5-0-4-2-2-2-0-0-7p5-0-4-2-2-2-0-0------|
D|-7p5-7p5-7p5-0-4-2-2-2-0-0-7p5-0-4-2-2-2-0-0------|

Chorus (Slight Distortion)
e|--------------------------------------------------|
B|--------------------------------------------------|
G|--------------------------------------------------|
D|-7-7-7-7-7-7-7-7-7-7-7-7-7-7-7-7-7-7-7-7-7-7------|
A|-7-7-7-7-7-7-7-7-7-7-7-7-7-7-7-7-7-7-7-7-7-7------|
D|-7-7-7-7-7-7-7-7-7-7-7-7-7-7-7-7-7-7-7-7-7-7------|

e|--------------------------------------------------|
B|--------------------------------------------------|
G|--------------------------------------------------|
D|-5-5-5-5-5-5-5-5-5-5-5-5-5-5-5-5-5-5-5-5-5-5------|
A|-5-5-5-5-5-5-5-5-5-5-5-5-5-5-5-5-5-5-5-5-5-5------|
D|-5-5-5-5-5-5-5-5-5-5-5-5-5-5-5-5-5-5-5-5-5-5------|

Buildup to "Sex is violent" (Slight Distortion) PM
e|--------------------------------------------------|
B|--------------------------------------------------|
G|--------------------------------------------------|
D|-4-4-4-4-4-4---4-4-4-4-4-4---4-4-4-4-4-4----------|
A|-4-4-4-4-4-4---4-4-4-4-4-4---4-4-4-4-4-4----------|
D|-4-4-4-4-4-4---4-4-4-4-4-4---4-4-4-4-4-4----------|

Main Riff After "Sex is violent" (Heavily Distorted)
e|--------------------------------------------------|
B|-17-x-x-x-17-x-x-x-x-17-x-x-x-17-x-x-x-x----------|
G|-16-x-x-x-16-x-x-x-x-16-x-x-x-16-x-x-x-x----------|
D|-14-x-x-x-14-x-x-x-x-14-x-x-x-14-x-x-x-x----------|
A|-14-x-x-x-14-x-x-x-x-14-x-x-x-14-x-x-x-x----------|
D|-14-x-x-x-14-x-x-x-x-14-x-x-x-14-x-x-x-x----------|

Chorus (Heavily Distorted)
e|--------------------------------------------------|
B|-10-10-10-10-10-10-10-10-10-10-10-10-10-10-10-----|
G|-9--9--9--9--9--9--9--9--9--9--9--9--9--9--9------|
D|-7--7--7--7--7--7--7--7--7--7--7--7--7--7--7------|
A|-7--7--7--7--7--7--7--7--7--7--7--7--7--7--7------|
D|-7--7--7--7--7--7--7--7--7--7--7--7--7--7--7------|

e|--------------------------------------------------|
B|-8-8-8-8-8-8-8-8-8-8-8-8-8-8-8-8-8-8-8-8-8-8------|
G|-7-7-7-7-7-7-7-7-7-7-7-7-7-7-7-7-7-7-7-7-7-7------|
D|-5-5-5-5-5-5-5-5-5-5-5-5-5-5-5-5-5-5-5-5-5-5------|
A|-5-5-5-5-5-5-5-5-5-5-5-5-5-5-5-5-5-5-5-5-5-5------|
D|-5-5-5-5-5-5-5-5-5-5-5-5-5-5-5-5-5-5-5-5-5-5------|

Ending (Heavily Distorted)
e|--------------------------------------------------|
B|-17-x-x-x-17-x-x-x-x-17-x-x-x-17-x-x-x-x-17-------|
G|-16-x-x-x-16-x-x-x-x-16-x-x-x-16-x-x-x-x-16-------|
D|-14-x-x-x-14-x-x-x-x-14-x-x-x-14-x-x-x-x-14-------|
A|-14-x-x-x-14-x-x-x-x-14-x-x-x-14-x-x-x-x-14-------|
D|-14-x-x-x-14-x-x-x-x-14-x-x-x-14-x-x-x-x-14-------|            
Submit corrections


        Ted Just Admit It lessons Hard to play? Try these video lessons and learn fast Ted Just Admit It lessons
        
↑ Back to top | Tablatures and chords for acoustic guitar and electric guitar, ukulele, drums are parodies/interpretations of the original songs. You may use it for private study, scholarship, research or language learning purposes only