» » »

Janes Addiction - Ted Just Admit It Bass

Artists:  A B C D E F G H I J K L M N O P Q R S T U V W X Y Z # 

Ted Just Admit It Bass

(ver. 5) Click to play this song!
Janes Addiction
 Rating:
4.4/5 (7 votes)

 Ted Just Admit It lessons Tabs too difficult? Try these video lessons and learn fast
 
                Intro]
G|------------------|
D|--7p5--7p5--7p5---|
A|----------------5-|
E|------------------|


[Verse 1]
G|-------------------------------------|
D|----4----------7-5----4-----5---7-5--|
A|-------7-7-5-7-----5----7-7---5-----5|
E|-------------------------------------|


[Chorus]
G|---------------------------------------------------------------------------|
D|--7777777--777-55555---7777777--777--55555---------------------------------|
A|-------------------------------------------7-5555---7----------------------|
E|---------------------------------------------------------------------------|

G|--------------------------|
D|-------------------7-5----|
A|--7777--9-7-7-10-------5--|
E|--------------------------|

[Verse 2] x4
G|----------------------------------------|
D|----4----------7-5----4------5---7-5----|
A|-------777--5-7-----5----777---5-----5--|
E|----------------------------------------|

[Verse 3] x4
G|-------------------------------------|
D|----4----------7-5----4-----5---7-5--|
A|-------7-7-5-7-----5----7-7---5-----5|
E|-------------------------------------|

[Chorus]

G|---------------------------------------------------------------------------|
D|--7777777--777-55555---7777777--777--55555---------------------------------|
A|-------------------------------------------7-5555---7----------------------|
E|---------------------------------------------------------------------------|

G|----------------------------------------------------------|
D|----------------------------------------------------------|
A|------------------------------------7-7--9-7-7-10--7-5----|
E|--555555-33-22-33--555555-33-22-33--0-0----------------5--|

[Verse 2] x4
G|----------------------------------------|
D|----4----------7-5----4------5---7-5----|
A|-------777--5-7-----5----777---5-----5--|
E|----------------------------------------|

[Verse 3] x4
G|-------------------------------------|
D|----4----------7-5----4-----5---7-5--|
A|-------7-7-5-7-----5----7-7---5-----5|
E|-------------------------------------|

[Chorus]

G|------------------------------------------------------------------------------|
D|--7777777--777-55555---7777777--777--55555------------------------------------|
A|-------------------------------------------7-5555---7--7----------------------|
E|-------------------------------------------------------0----------------------|

[Outro]

Verse 4: Slap bass X2
G|-------------------------------------------------------------------------|
D|-------------------------------------------------------------------------|
A|------7\-------7\-------7\-------7\-------7\-------7\-------7\------7----|
E|-0--0x---0-0-0x---0---0x---0-0-0x---0---0x---0-0-0x---0---0x---0-0-0x----|


G|---------------------------------------------------------------------------|
D|---------------------------------------------------------------------------|
A|---------------------------------------------------------------------------|
E|-5-3-5-3333-5-3-5-3333-5-3-5-3333--5-3-5-3333------------------------------|

Verse 4: Slap bass
G|-------------------------------------------------------------------------|
D|-------------------------------------------------------------------------|
A|------7\-------7\-------7\-------7\-------7\-------7\-------7\------7----|
E|-0--0x---0-0-0x---0---0x---0-0-0x---0---0x---0-0-0x---0---0x---0-0-0x----|

G|---------------------------------------------------------------------------|
D|---------------------------------------------------------------------------|
A|---------------------------------------------------------------------------|
E|-5-3-5-3333-5-3-5-3333-5-3-5-3333--5-3-5-3333------------------------------|

Verse 4: Slap bass
G|-------------------------------------------------------------------------|
D|-------------------------------------------------------------------------|
A|------7\-------7\-------7\-------7\-------7\-------7\-------7\------7----|
E|-0--0x---0-0-0x---0---0x---0-0-0x---0---0x---0-0-0x---0---0x---0-0-0x----|


G|---------------------------------------------------------------------------|
D|---------------------------------------------------------------------------|
A|---------------------------------------------------------------------------|
E|---------------------------------------------------------------------------|
            
Submit corrections


        Ted Just Admit It lessons Hard to play? Try these video lessons and learn fast Ted Just Admit It lessons
        
↑ Back to top | Tablatures and chords for acoustic guitar and electric guitar, ukulele, drums are parodies/interpretations of the original songs. You may use it for private study, scholarship, research or language learning purposes only