» » »

James Bay - Slide Tabs

Artists:  A B C D E F G H I J K L M N O P Q R S T U V W X Y Z # 

Slide Tabs

(ver. 1) Click to play this song!
James Bay
 Rating:
4.2/5 (30 votes)

 Slide lessons Tabs too difficult? Try these video lessons and learn fast
 
                [Verse 1]
          G     C       Em    G         G     C       Em    G   
E|------------------------------|-----------------------------|
B|-----0--0-------------------0-|----0--0---------------------|
G|--2-----0--2--2--0--0-0-----0-|-2-----0--2--2--2--2-2--0--0-|
D|--------------2----------0----|-------------2-------2-----0-|
A|--------------3---------------|-------------3---------------|
E|--------3-------------0-----3-|-------3-------------0-----3-|

  G          C        Em       G     G           Am        C/E D/F# G
E|---------------------------------|----------------------------------|
B|---3--3--0-----------0--------0--|----3--0--------------------------|
G|---0--------2--0--2-----2--0--0--|----0-----2--2--0--0--0--2--0--0--|
D|------------2--------------------|-------------2-----------0--0--0--|
A|------------3--------------------|-------------0--------------------|
E|-3-------------------0--------3--|-3-----------------------0--2--3--|

[Chorus 1]
          G    C              G       G/F#          Em        C              G
E|------------------------------------------|-------------------------------------------|
B|--------0----1--1--1--1--0-----0--0-------|--------0--------1--1--1--1--0-------------|
G|--0--2--0----0-----------0--2--0--0-------|--0--2--0-2-0----0-----------0--2--0--0----|
D|----------------------------0-------------|------------2-------------------0--0--0----|
A|-------------3----------------------------|-----------------3-------------------------|
E|--------3-------------------3--------2----|--------0-----------------------3----------|

[Verse 2]
          G     C       Em    G         G     C       Em    G   
E|------------------------------|--------------------------------|
B|-----0--0-------------------0-|----0--0------------------------|
G|--2-----0--2--2--0--0-0-----0-|-2-----0-2-2-2-2-2-2-2-2-0-0--0-|
D|--------------2----------0----|---------------2-------2------0-|
A|--------------3---------------|---------------3----------------|
E|--------3-------------0-----3-|-------3---------------0------3-|

  G          C        Em       G     G           Am        C/E D/F# G
E|---------------------------------|----------------------------------|
B|---3--3--0-----------0--------0--|----3--0--------------------------|
G|---0--------2--0--2-----2--0--0--|----0-----2--2--0--0--0--2--0--0--|
D|------------2--------------------|-------------2-----------0--0--0--|
A|------------3--------------------|-------------0--------------------|
E|-3-------------------0--------3--|-3-----------------------0--2--3--|

[Chorus 2]
          G    C              G       G/F#          Em        C              G
E|------------------------------------------|-------------------------------------------|
B|--------0----1--1--1--1--0-----0--0-------|--------0--------1--1--1--1--0-------------|
G|--0--2--0----0-----------0--2--0--0-------|--0--2--0-2-0----0-----------0--2--0--0----|
D|----------------------------0-------------|------------2-------------------0--0--0----|
A|-------------3----------------------------|-----------------3-------------------------|
E|--------3-------------------3--------2----|--------0-----------------------3----------|

          G       C           G           C        G           C
E|-------------------------------------------------------------------|
B|--3--0--0-------1--1--1--1--1--0--------------0--------------------|
G|--------0----0--0-----------0--0--0--2--2--2-----0--0--0--0--0-----|
D|----------------------------------------2--------0--------------2--|
A|----------------3-----------------------3--------------------3-----|
E|--------3-------------------3--------------------3-----------------|

          G        C              G
E|-----------------------------------------------|
B|--------0--------1--1--1--1--0-----------------|
G|--0--2--0-2-0----0-----------0--2----0----0----|
D|------------0-------------------0----0----0----|
A|-----------------3-----------------------------|
E|--------3-----------------------3--------------|

[Bridge]
    G                Am                G                Am                G                 C       D
E|----------------------------------|----------------------------------|-------------------------------|
B|-----0----------------0-----------|--0--0--0--0----------0--1--0-----|--0--0-----------0----------0--|
G|--2-----2--0-------2-----2--0-----|--------------2----2-----------2--|--------2--0--------2----0-----|
D|--------------2----------------0--|----------------------------------|--------------2----------------|
A|-------------------0--------------|-------------------0--------------|--------------------3----------|
E|--3-------------------------------|--3-------------------------------|--3----------------------------|

[Chorus 3]
          G    C              G       G/F#          Em        C              G
E|------------------------------------------|-------------------------------------------|
B|-------------1--1--1--1--0-----0--0-------|--------0--------1--1--1--1--0-------------|
G|--0--0--0----0-----------0--2--0--0-------|--0--2--0-2-0----0-----------0--2--0--0----|
D|----------------------------0-------------|------------2-------------------0--0--0----|
A|-------------3----------------------------|-----------------3-------------------------|
E|--------3-------------------3--------2----|--------0-----------------------3----------|

          G       C           G           C        G           C
E|-------------------------------------------------------------------|
B|--3--0--0-------1--1--1--1--1--0--------------0--------------------|
G|--------0----0--0-----------0--0--0--2--2--2-----0--0--0--0--0-----|
D|----------------------------------------2--------0--------------2--|
A|----------------3-----------------------3--------------------3-----|
E|--------3-------------------3--------------------3-----------------|

          G        C              G
E|------------------------------------------------|
B|-----------------1--1--1--1--0------------------|
G|--0--0--0--------0-----------0--2----2----0---0-|
D|--------------------------------0----0----0---0-|
A|-----------------3------------------------------|
E|--------3-----------------------3---------------|

[Outro]
    G  C  G     G        C     D     C     G  
E|-----------------|-----3--5--5--8--8--8--10--------3-0----------|
B|-----1-----------|--3---------------------8----3-3-----3-0-3----|
G|--0--0--0-----0--|-----------------5-------------------------2--|
D|-----------------|-----------0----------------------------------|
A|-----3-----0-----|-----3----------------------------------------|
E|--3-----3-----3--|----------------------------------------------|

    G     C     C     G     G     C     G     G
E|-----------------------|--3--5--5--7--7--5--3--|
B|-----------------------|--------------------0--|
G|--0--------------------|--------------0--------|
D|-----2--2--------0-----|-----------------------|
A|--------3--0--2-----2--|--------3--------------|
E|--3-----------------3--|--3-----------------3--|
            
Submit corrections


        Slide lessons Hard to play? Try these video lessons and learn fast Slide lessons
        
↑ Back to top | Tablatures and chords for acoustic guitar and electric guitar, ukulele, drums are parodies/interpretations of the original songs. You may use it for private study, scholarship, research or language learning purposes only