» » »

James Bay - Collide Tabs

Artists:  A B C D E F G H I J K L M N O P Q R S T U V W X Y Z # 

Collide Tabs

(ver. 1) Click to play this song!
James Bay
 Rating:
4.4/5 (7 votes)

 Collide  lessons Tabs too difficult? Try these video lessons and learn fast
 
                [Intro & Verse]
D|---------------------------------------------|
A|---------------------------------------------|
F|---------------------------------------------|
C|------7--7-------7-7-------------------------|
G|------5--5-------5-5-------5--5---3/5-5------|
D|-5-8---------5-8------5-8--3--3---1-3-3------|

[Pre Chorus]
D|----------------------|
A|----------------------|
F|----------------------|
C|----------------------|
G|-8-8-8-8-7-7-9-9------|
D|-6-6-6-6-5-5-7-9------|
   x x x x x x x x

[Chorus]
D|-------------------------------------|
A|-------------------------------------|
F|--7-7-7---5-5-5----------------------|
C|--7-7-7---5-5-5--5-5-5---5-5-5-------|
G|--5-5-5---3-3-3--5-5-5---5-5-5-------|
D|-----------------3-3-3---3-3-3-------| x 2

D|----------------------------------------------------------------------|
A|----------------------------------------------------------------------|
F|--7-7-7---5-5-5--------------------7-7-7---5-5-5----------------------|
C|--7-7-7---5-5-5--7-7-7---5-5-5-----7-7-7---5-5-5--5-5-5---5-5-5-------|
G|--5-5-5---3-3-3--7-7-7---5-5-5-----5-5-5---3-3-3--5-5-5---5-5-5-------|
D|-----------------5-5-5---3-5-5--------------------3-3-3---3-3-3-------|

[Bridge]
D|----------------------|
A|----------------------|
F|-7--9---4-------------|
C|-8--10--5-------------|
G|-8--10--5-------------|
D|-6--8---3-------------|
             
Submit corrections


        Collide  lessons Hard to play? Try these video lessons and learn fast Collide  lessons
        
↑ Back to top | Tablatures and chords for acoustic guitar and electric guitar, ukulele, drums are parodies/interpretations of the original songs. You may use it for private study, scholarship, research or language learning purposes only