» » »

James Bay - Clocks Go Forward Tabs

Artists:  A B C D E F G H I J K L M N O P Q R S T U V W X Y Z # 

Clocks Go Forward Tabs

(ver. 1) Click to play this song!
James Bay
 Rating:
3.5/5 (26 votes)

 Clocks Go Forward  lessons Tabs too difficult? Try these video lessons and learn fast
 
                e|---------------------------0---0--0h2---------------------|
B|-------3--3-------3--------3---3--3-----------------------|
G|-------4--4-------4--------4------------------------------|
D|0---0---------0-------0----0------------------------------|
A|----------------------------------------------------------|
E|--3----------------------3--------------------------------|

e|----------------------------0--0--0-----------------------|
B|------3---3------3-------------3--3--3--------------------|
G|------4---4------4----------------------4-----------------|
D|--0------------------0------------------------------------|
A|----------------------------------------------------------|
E|-3------------3---------3---------------------------------|

e|---------------------------------------0---0---0---0------|
B|--------3----3--------3----------------3---3---3---0------|
G|--------4----4--------4----------------------------4------|
D|----4---------------------4------4------------------------|
A|-2-----------------2---------2----------------------------|
E|----------------------------------------------------------|

e|---------------------------2------------------------------|
B|---------2-----------------2----2----2-------2----0-------|
G|------2----------2---------2----2----2-------2------------|
D|---4---------4-------------4------------------------------|
A|-0--------------------0-----------------------------------|
E|----------------------------------------------------------|
            
Submit corrections


        Clocks Go Forward  lessons Hard to play? Try these video lessons and learn fast Clocks Go Forward  lessons
        
↑ Back to top | Tablatures and chords for acoustic guitar and electric guitar, ukulele, drums are parodies/interpretations of the original songs. You may use it for private study, scholarship, research or language learning purposes only