» » »

Jack Johnson - Cocoon Tabs

Artists:  A B C D E F G H I J K L M N O P Q R S T U V W X Y Z # 

Cocoon Tabs

(ver. 2) Click to play this song!
Jack Johnson
 Rating:
4/5 (4 votes)

 Cocoon lessons Tabs too difficult? Try these video lessons and learn fast
 
                Intro
|-------5-—-4h5-------------5----4h5---5---| 
|---5-----0-----0---5---5-----0------0-5-0-| 
|-----6-----------6-------6----------------|  
|-------7-------------------7--------------|
|-----------7--------------------7---------|
|---5-------------------5------------------|

Verse (play each A,C#m,D and Bm two times and E four times.)
    A           C#m         D           Bm           E
|-------5-----------4-----------------------2------------0---|
|---5-----5-----5-----5---------7-------3-----3------0-----0-|
|-----6-----------6---------7-----7-------4------------1-----|
|-----------------------------7------------------------------|
|---------------4-----------5-----------2--------------------|
|---5------------------------------------------------0-------|

Pre Chorus
  Bm           E
|-----2------------0---|
|-3-----3------0-----0-|
|---4------------1-----|
|-2--------------------|
|-2--------------------|
|--------------0-------|

Chorus
   A           G#          D          E
|------5-----------4--------------------0-|
|--5-----------5-----------7---7------0-0-|
|----6-----------6-----------7--------1---|
|-----------------------------------------|
|--------------------------5--------------|
|--5-----------4--------------------------|

Bridge (Play each chord twice)
   A             C#m           F#m           D
|------5-------------4-------------2-----------------|
|--5-----5-------5-----5-------2-----2-------7-------|
|----6-------------6-------------2-------------7---7-|
|------------------------------------------------7---|
|----------------4---------------------------5-------|
|--5---------------------------2---------------------|

Outro
|--5---5-------7---7------9----9-------7---7---|
|----5---5-------5---5------0---0--------5---5-|
|--6---6-------6---6------6---6--------6---6---|
|----------------------------------------------|
|----------------------------------------------|
|----------------------------------------------|

Song Structure
Intro x2
Verse x2
Pre Chorus
Chorus x4
Intro x 2
Verse x2
Pre Chorus
Chorus x4
Bridge x2
Pre Chorus
Chorus x4
Intro x2
Outro x2
            
Submit corrections


        Cocoon lessons Hard to play? Try these video lessons and learn fast Cocoon lessons
        
↑ Back to top | Tablatures and chords for acoustic guitar and electric guitar, ukulele, drums are parodies/interpretations of the original songs. You may use it for private study, scholarship, research or language learning purposes only