» » »

Jack Johnson - Bubble Toes Tabs

Artists:  A B C D E F G H I J K L M N O P Q R S T U V W X Y Z # 

Bubble Toes Tabs

(ver. 2) Click to play this song!
Jack Johnson
 Rating:
4/5 (4 votes)

 Bubble Toes lessons Tabs too difficult? Try these video lessons and learn fast
 
                Jack Johnson- Bubbletoes 
RATE IT PLEASEEEEEE
My first tab for MxTabs and as far as I know this is one of the most complete 

intro


e----------------------------------------------------------|
b----------------------------------------------------------|
g----------------------------------------------------------|
d--7x-7-------9x-9-----------------------------------------|
a--5x-5--7x-7-7x-7--10x-----5x--5-7x--7-8x--8-7x-----------|
E--------5x-5--------8x-----3x--3-3x--3-3x--3-3x-----------|
    ^    part 1              ^    ^      part 2              ^

~play part 1 twice with lyrics and then play part 2 once as an little interlude
then repeat the process, on the third time dont play part 2, just go into strumming
the following chords~

                                ***
e--3-3-xxx--3-3-xxx--x-x-xxx--xxx-x-x-xxx--|
b--3-3-xxx--3-3-xxx--5-5-xxx--5s7-7-7-xxx--|
g--4-4-xxx--4-4-xxx--5-5-xxx--5s7-7-7-xxx--|
d--5-5-xxx--5-5-xxx--5-5-xxx--5s7-7-7-xxx--|
a--5-5-xxx--5-5-xxx--3-3-xxx--3s5-5-5-xxx--|
E--3-3-xxx--3-3-xxx--3-3-xxx--3s5-5-5-xxx--|

**that chord is a little dificult at first to get used to you need to use you ring
finger to press down the three 5's and to mute the high e string.**



~that progression is play through just about the entire song and at 1:23 before the
first time through the chorus, the following riff is played~

e------------------------------------------------|
b------------------------------------------------|
g------------------------------------------------|
d-----------------xxx-2-2-2h4-2-0----------------|
a-------2-3-5-----------------------3------------|
E--3-3--------3----------------------------------|



Thanks for checkin out my tab i hope it helps you learn this song, if it does id apreciate
it if you would rate it.
            
Submit corrections


        Bubble Toes lessons Hard to play? Try these video lessons and learn fast Bubble Toes lessons
        
↑ Back to top | Tablatures and chords for acoustic guitar and electric guitar, ukulele, drums are parodies/interpretations of the original songs. You may use it for private study, scholarship, research or language learning purposes only