Home » I » Iron Maiden »

Iron Maiden - The Wicker Man Bass

Artists:  A B C D E F G H I J K L M N O P Q R S T U V W X Y Z # 

The Wicker Man Bass

(ver. 3) Click to play this song!
Iron Maiden
 Rating:
3.3/5 (28 votes)
                          Intro                                          
     S    S        W                   W                 
G||----|--------|-------------------|-------------------|
D||----|--------|-------------------|-------------------|
A||----|--------|-------------------|-------------------|
E||----|--------|-------------------|-------------------|


  >  >        >  >           >  >        >  > > >  >   
  E  S S Q    E  S S Q       E  S S Q    E  S S E  E   
--9--9--------9--9--------|--9--9---------------------|
--9--9--------9--9--------|--9--9---------------------|
--7--7--------7--7--------|--7--7--------3--3---------|
--------------------------|-------------------5-3--0--|


  >              >                 >              >  > > >  >   
  E  S S S S S S E  S S S S S S    E  S S S S S S E  S S E  E   
--9--------------9--------------|--9---------------------------|
--9--------------9--------------|--9---------------------------|
--7--7-7-7-7-7-7-7--7-7-7-7-7-7-|--7--7-7-7-7-7-7-3--3---------|
--------------------------------|----------------------5-3--0--|


  >              >                 >              >  > > >  > >  
  E  S S S S S S E  S S S S S S    E  S S S S S S E  S S E  S S  
--9--------------9--------------|--9----------------------------|
--9--------------9--------------|--9---------------------5--5---|
--7--7-7-7-7-7-7-7--7-7-7-7-7-7-|--7--7-7-7-7-7-7-3--3--------5-|
--------------------------------|----------------------5--------|


  Verso                                                            
  >                 >                 >              >  > > >  >   
  E     S S S S S S E  S S S S S S    E  S S S S S S E  S S E  E   
--9-----------------9--------------|--9---------------------------|
--9-----------------9--------------|--9---------------------------|
--7-----7-7-7-7-7-7-7--7-7-7-7-7-7-|--7--7-7-7-7-7-7-3--3---------|
-----------------------------------|----------------------5-3--0--|


  >              >                 >              >  > > >  > >  
  E  S S S S S S E  S S S S S S    E  S S S S S S E  S S E  S S  
--9--------------9--------------|--9----------------------------|
--9--------------9--------------|--9---------------------5--5---|
--7--7-7-7-7-7-7-7--7-7-7-7-7-7-|--7--7-7-7-7-7-7-3--3--------5-|
--------------------------------|----------------------5--------|


  >              >                 >              >  > > >  >   
  E  S S S S S S E  S S S S S S    E  S S S S S S E  S S E  E   
--9--------------9--------------|--9---------------------------|
--9--------------9--------------|--9---------------------------|
--7--7-7-7-7-7-7-7--7-7-7-7-7-7-|--7--7-7-7-7-7-7-3--3---------|
--------------------------------|----------------------5-3--0--|


  >              >                 >              >  > > >  > >  
  E  S S S S S S E  S S S S S S    E  S S S S S S E  S S E  S S  
--9--------------9--------------|--9----------------------------|
--9--------------9--------------|--9---------------------5--5---|
--7--7-7-7-7-7-7-7--7-7-7-7-7-7-|--7--7-7-7-7-7-7-3--3--------5-|
--------------------------------|----------------------5--------|


  Pre-Coro                                                                
  >                              > >     >                 >  >  > >  >   
  E        S S S S S S S S S S S S E     E  S S S S S S S  S  S  S E  E   
--7-----------------------------------|--5-------------------------------|
--7-----------------------------------|--5-------------------------------|
--5--------5-5-5-5-5-5-5-5-5-5-5-5-7--|--3--3-3-3-3-3-3-3-10-10-10-9--7--|
--------------------------------------|----------------------------------|


  >                        > >     >               > > >  > > >  
  E  S S S S S S S S S S S S E     E  S S S S S E  S S E  S S S  
--7-----------------------------|--5----------------------------|
--7-----------------------------|--5----------------------------|
--5--5-5-5-5-5-5-5-5-5-5-5-5-7--|--3--3-3-3-3-3-3---------3---3-|
--------------------------------|------------------3-3-3----5---|


  >                        > >     >                 >  >  > >  >   
  E  S S S S S S S S S S S S E     E  S S S S S S S  S  S  S E  E   
--7-----------------------------|--5-------------------------------|
--7-----------------------------|--5-------------------------------|
--5--5-5-5-5-5-5-5-5-5-5-5-5-7--|--3--3-3-3-3-3-3-3-10-10-10-9--7--|
--------------------------------|----------------------------------|


  >                         > >     >               >    >      
  S S S S S S S S S S S S S S E     E  S S S S S E  Q    E.  S  
--7------------------------------|--5--------------------------|
--7------------------------------|--5--------------------------|
--5-5-5-5-5-5-5-5-5-5-5-5-5-5-7--|--3--3-3-3-3-3-3-------5---x-|
---------------------------------|------------------3----------|


  Coro A                                                               
  >                   >                 >              >               
  S      S S S E  S S S S S S E  S S    S S S S E  S S S S S S E  S S  
-------------------------------------|--------------------------------|
-------------------------------------|--------------------------------|
--7------7-7-7-7--7-7-3-3-3-3-3--3-3-|--------------------------------|
-------------------------------------|--3-3-3-3-3--3-3-5-5-5-5-5--5-5-|


  >              >                 >              >       >     
  S S S S E  S S S S S S E  S S    S S S S E  S S S S S S Q     
--------------------------------|------------------------------|
-----------------5-5-5-5-5--5-5-|------------------------------|
--7-7-7-7-7--7-7----------------|--3-3-3-3-3--3-3--------------|
--------------------------------|-----------------3-3-3-3-5----|


  >              >                 >              >               
  S S S S E  S S S S S S E  S S    S S S S E  S S S S S S E  S S  
--------------------------------|--------------------------------|
--------------------------------|--------------------------------|
--7-7-7-7-7--7-7-3-3-3-3-3--3-3-|--------------------------------|
--------------------------------|--3-3-3-3-3--3-3-5-5-5-5-5--5-5-|


  >              >                 >              >       >  >   
  S S S S E  S S S S S S E  S S    S S S S E  S S S S S S E  E   
--------------------------------|-------------------------------|
-----------------5-5-5-5-5--5-5-|-------------------------------|
--7-7-7-7-7--7-7----------------|--3-3-3-3-3--3-3---------------|
--------------------------------|-----------------3-3-3-3-5--0--|


  Verso                                                            
  >                 >                 >              >  > > >  >   
  E     S S S S S S E  S S S S S S    E  S S S S S S E  S S E  E   
--9-----------------9--------------|--9---------------------------|
--9-----------------9--------------|--9---------------------------|
--7-----7-7-7-7-7-7-7--7-7-7-7-7-7-|--7--7-7-7-7-7-7-3--3---------|
-----------------------------------|----------------------5-3--0--|


  >              >                 >              >  > > >  > >  
  E  S S S S S S E  S S S S S S    E  S S S S S S E  S S E  S S  
--9--------------9--------------|--9----------------------------|
--9--------------9--------------|--9---------------------5--5---|
--7--7-7-7-7-7-7-7--7-7-7-7-7-7-|--7--7-7-7-7-7-7-3--3--------5-|
--------------------------------|----------------------5--------|


  >              >                 >              >  > > >  >   
  E  S S S S S S E  S S S S S S    E  S S S S S S E  S S E  E   
--9--------------9--------------|--9---------------------------|
--9--------------9--------------|--9---------------------------|
--7--7-7-7-7-7-7-7--7-7-7-7-7-7-|--7--7-7-7-7-7-7-3--3---------|
--------------------------------|----------------------5-3--0--|


  >              >                 >              >  > > >  > >  
  E  S S S S S S E  S S S S S S    E  S S S S S S E  S S E  S S  
--9--------------9--------------|--9----------------------------|
--9--------------9--------------|--9---------------------5--5---|
--7--7-7-7-7-7-7-7--7-7-7-7-7-7-|--7--7-7-7-7-7-7-3--3--------5-|
--------------------------------|----------------------5--------|


  Pre-Coro                                                                
  >                              > >     >                 >  >  > >  >   
  E        S S S S S S S S S S S S E     E  S S S S S S S  S  S  S E  E   
--7-----------------------------------|--5-------------------------------|
--7-----------------------------------|--5-------------------------------|
--5--------5-5-5-5-5-5-5-5-5-5-5-5-7--|--3--3-3-3-3-3-3-3-10-10-10-9--7--|
--------------------------------------|----------------------------------|


  >                        > >     >               > > >  > > >  
  E  S S S S S S S S S S S S E     E  S S S S S E  S S E  S S S  
--7-----------------------------|--5----------------------------|
--7-----------------------------|--5----------------------------|
--5--5-5-5-5-5-5-5-5-5-5-5-5-7--|--3--3-3-3-3-3-3---------3---3-|
--------------------------------|------------------3-3-3----5---|


  >                        > >     >                 >  >  > >  >   
  E  S S S S S S S S S S S S E     E  S S S S S S S  S  S  S E  E   
--7-----------------------------|--5-------------------------------|
--7-----------------------------|--5-------------------------------|
--5--5-5-5-5-5-5-5-5-5-5-5-5-7--|--3--3-3-3-3-3-3-3-10-10-10-9--7--|
--------------------------------|----------------------------------|


  >                         > >     >               >  >  >      
  S S S S S S S S S S S S S S E     E  S S S S S E  E  E  E.  S  
--7------------------------------|--5---------------------------|
--7------------------------------|--5---------------------7---x-|
--5-5-5-5-5-5-5-5-5-5-5-5-5-5-7--|--3--3-3-3-3-3-3--------5---x-|
---------------------------------|------------------3--3--------|


  Coro A                                                               
  >                   >                 >              >               
  S      S S S E  S S S S S S E  S S    S S S S E  S S S S S S E  S S  
-------------------------------------|--------------------------------|
-------------------------------------|--------------------------------|
--7------7-7-7-7--7-7-3-3-3-3-3--3-3-|--------------------------------|
-------------------------------------|--3-3-3-3-3--3-3-5-5-5-5-5--5-5-|


  >              >                 >              >       >   >   
  S S S S E  S S S S S S E  S S    S S S S E  S S S S S S S S E   
--------------------------------|--------------------------------|
-----------------5-5-5-5-5--5-5-|--------------------------------|
--7-7-7-7-7--7-7----------------|--3-3-3-3-3--3-3----------------|
--------------------------------|-----------------3-3-3-3-5-5-0--|


  >              >                 >              >               
  S S S S E  S S S S S S E  S S    S S S S E  S S S S S S E  S S  
--------------------------------|--------------------------------|
--------------------------------|--------------------------------|
--7-7-7-7-7--7-7-3-3-3-3-3--3-3-|--------------------------------|
--------------------------------|--3-3-3-3-3--3-3-5-5-5-5-5--5-5-|


  >              >                 >              >       >   >   
  S S S S E  S S S S S S E  S S    S S S S E  S S S S S S S S E   
--------------------------------|--------------------------------|
-----------------5-5-5-5-5--5-5-|--------------------------------|
--7-7-7-7-7--7-7----------------|--3-3-3-3-3--3-3----------------|
--------------------------------|-----------------3-3-3-3-5-5-0--|


  Interludio                                                            
  >                    >                 >              >               
  E          S S S S S E  S S S S S S    E  S S S S S S S S E  S S S S  
--9--------------------9--------------|--5-----------------------------|
--9--------------------9--------------|--5----------------5-5----5-----|
--7----------7-7-7-7-7-7--7-7-7-7-7-7-|--3--3-3-3-3-3-3--------7---7-5-|
--------------------------------------|-----------------3--------------|


  >              >                 >              >               
  E  S S S S S S E  S S S S S S    E  S S S S S S S S E  S S S S  
--9--------------9--------------|--5-----------------------------|
--9--------------9--------------|--5----------------5-5----5-----|
--7--7-7-7-7-7-7-7--7-7-7-7-7-7-|--3--3-3-3-3-3-3--------7---7-5-|
--------------------------------|-----------------3--------------|


  >              >                 >              >               
  E  S S S S S S E  S S S S S S    E  S S S S S S S S E  S S S S  
--9--------------9--------------|--5-----------------------------|
--9--------------9--------------|--5----------------5-5----5-----|
--7--7-7-7-7-7-7-7--7-7-7-7-7-7-|--3--3-3-3-3-3-3--------7---7-5-|
--------------------------------|-----------------3--------------|


  >              >                 >              >                 
  E  S S S S S S E  S S S S S S    E  S S S S S S S S E  S S S S S  
--9--------------9--------------|--5-------------------------------|
--9--------------9--------------|--5----------------5-5----5-------|
--7--7-7-7-7-7-7-7--7-7-7-7-7-7-|--3--3-3-3-3-3-3--------7---7-5-x-|
--------------------------------|-----------------3----------------|


  Solo Adrian Smith                              
  >                              >               
  S                 S S S E  S S S S S S E  S S  
------------------------------------------------|
------------------------------------------------|
------------------------------------------------|
--7-----------------7-7-7-7--7-7-5-5-5-5-5--5-5-|


  >              >                 >              >               
  S S S S E  S S S S S S E  S S    S S S S E  S S S S S S E  S S  
--------------------------------|--------------------------------|
--------------------------------|--------------------------------|
--------------------------------|--------------------------------|
--3-3-3-3-3--3-3-5-5-5-5-5--5-5-|--7-7-7-7-7--7-7-5-5-5-5-5--5-5-|


  >              >                 >              >               
  S S S S E  S S S S S S E  S S    S S S S E  S S S S S S E  S S  
--------------------------------|--------------------------------|
--------------------------------|--------------------------------|
-----------------3-3-3-3-3--3-3-|--------------------------------|
--3-3-3-3-3--3-3----------------|--7-7-7-7-7--7-7-5-5-5-5-5--5-5-|


  >              >                 >              >               
  S S S S E  S S S S S S E  S S    S S S S E  S S S S S S E  S S  
--------------------------------|--------------------------------|
--------------------------------|--------------------------------|
--------------------------------|--------------------------------|
--3-3-3-3-3--3-3-5-5-5-5-5--5-5-|--7-7-7-7-7--7-7-5-5-5-5-5--5-5-|


                                  Interludio                           
  >                               >                    >               
  S S S S E  S S S S S S E  E     E          S S S S S E  S S S S S S  
-------------------------------|--9--------------------9--------------|
-------------------------------|--9--------------------9--------------|
-----------------3-3-3-3-3--3--|--7----------7-7-7-7-7-7--7-7-7-7-7-7-|
--3-3-3-3-3--3-3---------------|--------------------------------------|


  >              >                 >              >               
  E  S S S S S S S S E  S S S S    E  S S S S S S E  S S S S S S  
--5-----------------------------|--9--------------9--------------|
--5----------------5-5----5-----|--9--------------9--------------|
--3--3-3-3-3-3-3--------7---7-5-|--7--7-7-7-7-7-7-7--7-7-7-7-7-7-|
-----------------3--------------|--------------------------------|


  >              >                 >              >               
  E  S S S S S S S S E  S S S S    E  S S S S S S E  S S S S S S  
--5-----------------------------|--9--------------9--------------|
--5----------------5-5----5-----|--9--------------9--------------|
--3--3-3-3-3-3-3--------7---7-5-|--7--7-7-7-7-7-7-7--7-7-7-7-7-7-|
-----------------3--------------|--------------------------------|


  >              >                 >              >               
  E  S S S S S S S S E  S S S S    E  S S S S S S E  S S S S S S  
--5-----------------------------|--9--------------9--------------|
--5----------------5-5----5-----|--9--------------9--------------|
--3--3-3-3-3-3-3--------7---7-5-|--7--7-7-7-7-7-7-7--7-7-7-7-7-7-|
-----------------3--------------|--------------------------------|


                                     Coro A                              
  >              >                   >                   >               
  E  S S S S S S S S E  S S S S S    S      S S S E  S S S S S S E  S S  
--5-------------------------------|--9----------------------------------|
--5----------------5-5----5-------|--9----------------------------------|
--3--3-3-3-3-3-3--------7---7-5-x-|--7------7-7-7-7--7-7-3-3-3-3-3--3-3-|
-----------------3----------------|-------------------------------------|


  >              >                 >              >               
  S S S S E  S S S S S S E  S S    S S S S E  S S S S S S E  S S  
--------------------------------|--------------------------------|
--------------------------------|-----------------5-5-5-5-5--5-5-|
--------------------------------|--7-7-7-7-7--7-7----------------|
--3-3-3-3-3--3-3-5-5-5-5-5--5-5-|--------------------------------|


  >              >       >   >     >              >               
  S S S S E  S S S S S S S S E     S S S S E  S S S S S S E  S S  
--------------------------------|--------------------------------|
--------------------------------|--------------------------------|
--3-3-3-3-3--3-3----------------|--7-7-7-7-7--7-7-3-3-3-3-3--3-3-|
-----------------3-3-3-3-5-5-0--|--------------------------------|


  >              >                 >              >               
  S S S S E  S S S S S S E  S S    S S S S E  S S S S S S E  S S  
--------------------------------|--------------------------------|
--------------------------------|-----------------5-5-5-5-5--5-5-|
--------------------------------|--7-7-7-7-7--7-7----------------|
--3-3-3-3-3--3-3-5-5-5-5-5--5-5-|--------------------------------|


  >              >       >   >     >              >               
  S S S S E  S S S S S S S S E     S S S S E  S S S S S S E  S S  
--------------------------------|--------------------------------|
--------------------------------|--------------------------------|
--3-3-3-3-3--3-3----------------|--7-7-7-7-7--7-7-3-3-3-3-3--3-3-|
-----------------3-3-3-3-5-5-0--|--------------------------------|


  >              >                 >              >               
  S S S S E  S S S S S S E  S S    S S S S E  S S S S S S E  S S  
--------------------------------|--------------------------------|
--------------------------------|-----------------5-5-5-5-5--5-5-|
--------------------------------|--7-7-7-7-7--7-7----------------|
--3-3-3-3-3--3-3-5-5-5-5-5--5-5-|--------------------------------|


  >              >       >   >     >              >               
  S S S S E  S S S S S S S S E     S S S S E  S S S S S S E  S S  
--------------------------------|--------------------------------|
--------------------------------|--------------------------------|
--3-3-3-3-3--3-3----------------|--7-7-7-7-7--7-7-3-3-3-3-3--3-3-|
-----------------3-3-3-3-5-5-0--|--------------------------------|


  >              >                 >              >               
  S S S S E  S S S S S S E  S S    S S S S E  S S S S S S E  S S  
--------------------------------|--------------------------------|
--------------------------------|-----------------5-5-5-5-5--5-5-|
--------------------------------|--7-7-7-7-7--7-7----------------|
--3-3-3-3-3--3-3-5-5-5-5-5--5-5-|--------------------------------|


                                  Coro B                    
  >              >       >  >     >                     >   
  S S S S E  S S S S S S E  E     Q      E  E  E  E  E  E   
-------------------------------|---------------------------|
-------------------------------|--9------9--9--9--9--9-----|
--3-3-3-3-3--3-3---------------|--7------7--7--7--7--7--7--|
-----------------3-3-3-3-5--0--|------------------------5--|


  >                   >     >                   >     >                   >   
  Q    E  E  E  E  E  E     Q    E  E  E  E  E  E     Q    E  E  E  E  E  E   
-------------------------|-------------------------|-------------------------|
--5----5--5--5--5--5-----|-------------------------|--7----7--7--7--7--7-----|
--3----3--3--3--3--3--7--|--5----5--5--5--5--5--7--|--5----5--5--5--5--5--9--|
----------------------5--|--3----3--3--3--3--3--5--|----------------------7--|


  >                   >     >                   >     >                   >   
  Q    E  E  E  E  E  E     Q    E  E  E  E  E  E     Q    E  E  E  E  E  E   
-------------------------|-------------------------|-------------------------|
--9----9--9--9--9--9-----|--5----5--5--5--5--5-----|-------------------------|
--7----7--7--7--7--7--7--|--3----3--3--3--3--3--7--|--5----5--5--5--5--5--7--|
----------------------5--|----------------------5--|--3----3--3--3--3--3--5--|


                            Outro                                              
  >                   >     >                    >     >                   >   
  Q    E  E  E  E  E  E     Q     E  E  E  E  E  E     Q    E  E  E  E  E  E   
-------------------------|--------------------------|-------------------------|
--7----7--7--7--7--7-----|--9-----9--9--9--9--9-----|--5----5--5--5--5--5-----|
--5----5--5--5--5--5--9--|--7-----7--7--7--7--7--7--|--3----3--3--3--3--3--7--|
----------------------7--|-----------------------5--|----------------------5--|


  >                   >     >                   >     >                   >   
  Q    E  E  E  E  E  E     Q    E  E  E  E  E  E     Q    E  E  E  E  E  E   
-------------------------|-------------------------|-------------------------|
-------------------------|--7----7--7--7--7--7-----|--9----9--9--9--9--9-----|
--5----5--5--5--5--5--7--|--5----5--5--5--5--5--9--|--7----7--7--7--7--7--7--|
--3----3--3--3--3--3--5--|----------------------7--|----------------------5--|


  >                   >     >                        >                 
  Q    E  E  E  E  E  E     Q    E  E  E  E  Q       W                 
-------------------------|------------------------|--7----------------|
--5----5--5--5--5--5-----|------------------------|--7----------------|
--3----3--3--3--3--3--7--|--5----5--5--5--5--5----|--5----------------|
----------------------5--|--3----3--3--3--3--3----|-------------------|


  W                   W                  
--L----------------|--L----------------||
--L----------------|--L----------------||
--L----------------|--L----------------||
-------------------|-------------------||
            
Submit corrections

↑ Back to top | Tablatures and chords for acoustic guitar and electric guitar, ukulele, drums are parodies/interpretations of the original songs. You may use it for private study, scholarship, research or language learning purposes only