» » »

Iron Maiden - The Wicker Man Tabs

Artists:  A B C D E F G H I J K L M N O P Q R S T U V W X Y Z # 

The Wicker Man Tabs

(ver. 1) Click to play this song!
Iron Maiden
 Rating:
4.3/5 (22 votes)

 The Wicker Man  lessons Tabs too difficult? Try these video lessons and learn fast
 
                         Intro                                             
          ^        >  v PM PM PM PM PM >  v PM PM PM PM PM  
     S    S        E  S S  S  S  S  S  E  S S  S  S  S  S   
E||----|--------|------------------------------------------|
B||----|--------|------------------------------------------|
G||----|--x-----|--9--9----------------9--9----------------|
D||----|--x-----|--9--9----------------9--9----------------|
A||----|--x-----|--7--7----------------7--7----------------|
E||----|--------|-------0--0--0--0--0-------0--0--0--0--0--|


  >  v PM PM PM PM PM >  > v  >   >  v  
  E  S S  S  S  S  S  E  S S  E   S  S  
---------------------------------------|
---------------------------------------|
--9--9----------------5--5-x-12--12--x-|
--9--9----------------5--5-x-12--12--x-|
--7--7----------------3--3-x-10--10--x-|
-------0--0--0--0--0-------------------|


  >  v PM PM PM PM PM >  v PM PM PM PM PM  
  E  S S  S  S  S  S  E  S S  S  S  S  S   
------------------------------------------|
------------------------------------------|
--9--9----------------9--9----------------|
--9--9----------------9--9----------------|
--7--7----------------7--7----------------|
-------0--0--0--0--0-------0--0--0--0--0--|


  >  v PM PM PM PM PM >  > v  >   >  v  
  E  S S  S  S  S  S  E  S S  E   S  S  
---------------------------------------|
---------------------------------------|
--9--9----------------5--5-x-12--12--x-|
--9--9----------------5--5-x-12--12--x-|
--7--7----------------3--3-x-10--10--x-|
-------0--0--0--0--0-------------------|


  >  v PM PM PM PM PM >  v PM PM PM PM PM  
  E  S S  S  S  S  S  E  S S  S  S  S  S   
------------------------------------------|
------------------------------------------|
--9--9----------------9--9----------------|
--9--9----------------9--9----------------|
--7--7----------------7--7----------------|
-------0--0--0--0--0-------0--0--0--0--0--|


  >  v PM PM PM PM PM >  > v  >   >  v  
  E  S S  S  S  S  S  E  S S  E   S  S  
---------------------------------------|
---------------------------------------|
--9--9----------------5--5-x-12--12--x-|
--9--9----------------5--5-x-12--12--x-|
--7--7----------------3--3-x-10--10--x-|
-------0--0--0--0--0-------------------|


  >  v PM PM PM PM PM >  v PM PM PM PM PM  
  E  S S  S  S  S  S  E  S S  S  S  S  S   
------------------------------------------|
------------------------------------------|
--9--9----------------9--9----------------|
--9--9----------------9--9----------------|
--7--7----------------7--7----------------|
-------0--0--0--0--0-------0--0--0--0--0--|


  >  v PM PM PM PM PM >  > v  >   >  v  
  E  S S  S  S  S  S  E  S S  E   S  S  
---------------------------------------|
---------------------------------------|
--9--9----------------5--5-x-12--12--x-|
--9--9----------------5--5-x-12--12--x-|
--7--7----------------3--3-x-10--10--x-|
-------0--0--0--0--0-------------------|


  Verso                                       
  >     v PM PM PM PM PM >  v PM PM PM PM PM  
  E     S S  S  S  S  S  E  S S  S  S  S  S   
---------------------------------------------|
---------------------------------------------|
--9-----9----------------9--9----------------|
--9-----9----------------9--9----------------|
--7-----7----------------7--7----------------|
----------0--0--0--0--0-------0--0--0--0--0--|


  >  v PM PM PM PM PM >  > v  >   >  v  
  E  S S  S  S  S  S  E  S S  E   S  S  
---------------------------------------|
---------------------------------------|
--9--9----------------5--5-x-12--12--x-|
--9--9----------------5--5-x-12--12--x-|
--7--7----------------3--3-x-10--10--x-|
-------0--0--0--0--0-------------------|


  >  v PM PM PM PM PM >  v PM PM PM PM PM  
  E  S S  S  S  S  S  E  S S  S  S  S  S   
------------------------------------------|
------------------------------------------|
--9--9----------------9--9----------------|
--9--9----------------9--9----------------|
--7--7----------------7--7----------------|
-------0--0--0--0--0-------0--0--0--0--0--|


  >  v PM PM PM PM PM >  > v  >   >  v  
  E  S S  S  S  S  S  E  S S  E   S  S  
---------------------------------------|
---------------------------------------|
--9--9----------------5--5-x-12--12--x-|
--9--9----------------5--5-x-12--12--x-|
--7--7----------------3--3-x-10--10--x-|
-------0--0--0--0--0-------------------|


  >  v PM PM PM PM PM >  v PM PM PM PM PM  
  E  S S  S  S  S  S  E  S S  S  S  S  S   
------------------------------------------|
------------------------------------------|
--9--9----------------9--9----------------|
--9--9----------------9--9----------------|
--7--7----------------7--7----------------|
-------0--0--0--0--0-------0--0--0--0--0--|


  >  v PM PM PM PM PM >  > v  >   >  v  
  E  S S  S  S  S  S  E  S S  E   S  S  
---------------------------------------|
---------------------------------------|
--9--9----------------5--5-x-12--12--x-|
--9--9----------------5--5-x-12--12--x-|
--7--7----------------3--3-x-10--10--x-|
-------0--0--0--0--0-------------------|


  >  v PM PM PM PM PM >  v PM PM PM PM PM  
  E  S S  S  S  S  S  E  S S  S  S  S  S   
------------------------------------------|
------------------------------------------|
--9--9----------------9--9----------------|
--9--9----------------9--9----------------|
--7--7----------------7--7----------------|
-------0--0--0--0--0-------0--0--0--0--0--|


                                          Pre-Coro             
  >  v PM PM PM PM PM >  > v  >   >  v                     v   
  E  S S  S  S  S  S  E  S S  E   S  S    H.           S S E   
---------------------------------------|----------------------|
---------------------------------------|----------------------|
--9--9----------------5--5-x-12--12--x-|--7------------L-7-9--|
--9--9----------------5--5-x-12--12--x-|--7------------L-7-9--|
--7--7----------------3--3-x-10--10--x-|--5------------L-5-7--|
-------0--0--0--0--0-------------------|----------------------|


                 v                             v                   v     v   
  H        S  S  E   E  E     H.           S S E     H         S S E.  S E   
---------------------------|----------------------|-------------------------|
---------------------------|----------------------|-------------------------|
--5--------L-12-12--11--9--|--7------------L-7-9--|--5---------L-------5-5--|
--5--------L-12-12--11--9--|--7------------L-7-9--|--5---------L-5-5---5-5--|
--3--------L-10-10---9--7--|--5------------L-5-7--|--3---------L-5-5---3-3--|
---------------------------|----------------------|--------------3-3--------|


                   v                    v                             v   
  H.           S S E     H        S  S  E   E  E     H.           S S E   
----------------------|---------------------------|----------------------|
----------------------|---------------------------|----------------------|
--7------------L-7-9--|--5--------L-12-12--11--9--|--7------------L-7-9--|
--7------------L-7-9--|--5--------L-12-12--11--9--|--7------------L-7-9--|
--5------------L-5-7--|--3--------L-10-10---9--7--|--5------------L-5-7--|
----------------------|---------------------------|----------------------|


                              Coro A                            
                v     v       ^      v ^ v ^     ^ v ^ v ^      
  H         S S E.  S E  S    S      S S S E  E  S S S S E  E   
---------------------------|-----------------------------------|
---------------------------|-----------------------------------|
--5---------L-------7-7--x-|--9------9-9-9-9-----5-5-5-5-5-----|
--5---------L-5-5---7-7--x-|--9------9-9-9-9-----5-5-5-5-5-----|
--3---------L-5-5---5-5--x-|--7------7-7-7-7-----3-3-3-3-3-----|
--------------3-3----------|-----------------------------------|


  ^ v ^ v ^     ^ v ^ v ^        ^ v ^ v ^      ^  v  ^  v  ^      
  S S S S E  E  S S S S E  E     S S S S E  E   S  S  S  S  E  E   
------------------------------|-----------------------------------|
------------------------------|-----------------------------------|
------------------------------|--9-9-9-9-9-----12-12-12-12-12-----|
--5-5-5-5-5-----7-7-7-7-7-----|--9-9-9-9-9-----12-12-12-12-12-----|
--5-5-5-5-5-----7-7-7-7-7-----|--7-7-7-7-7-----10-10-10-10-10-----|
--3-3-3-3-3-----5-5-5-5-5-----|-----------------------------------|


  ^ v ^ v ^     ^ v ^   ^ v ^      ^ v ^ v ^     ^ v ^ v ^      
  S S S S E  E  S S S S S S S S    S S S S E  E  S S S S E  E   
--------------------------------|------------------------------|
--------------------------------|------------------------------|
--5-5-5-5-5---------------------|--9-9-9-9-9-----5-5-5-5-5-----|
--5-5-5-5-5-----5-5-5---7-7-7---|--9-9-9-9-9-----5-5-5-5-5-----|
--3-3-3-3-3-----5-5-5---7-7-7---|--7-7-7-7-7-----3-3-3-3-3-----|
----------------3-3-3---5-5-5---|------------------------------|


  ^ v ^ v ^     ^ v ^ v ^        ^ v ^ v ^      ^  v  ^  v  ^      
  S S S S E  E  S S S S E  E     S S S S E  E   S  S  S  S  E  E   
------------------------------|-----------------------------------|
------------------------------|-----------------------------------|
------------------------------|--9-9-9-9-9-----12-12-12-12-12-----|
--5-5-5-5-5-----7-7-7-7-7-----|--9-9-9-9-9-----12-12-12-12-12-----|
--5-5-5-5-5-----7-7-7-7-7-----|--7-7-7-7-7-----10-10-10-10-10-----|
--3-3-3-3-3-----5-5-5-5-5-----|-----------------------------------|


                                   Verso                                       
  ^ v ^ v ^     ^ v ^   ^ v ^      >     v PM PM PM PM PM >  v PM PM PM PM PM  
  S S S S E  E  S S S S S S S S    E     S S  S  S  S  S  E  S S  S  S  S  S   
--------------------------------|---------------------------------------------|
--------------------------------|---------------------------------------------|
--5-5-5-5-5---------------------|--9-----9----------------9--9----------------|
--5-5-5-5-5-----5-5-5---7-7-7---|--9-----9----------------9--9----------------|
--3-3-3-3-3-----5-5-5---7-7-7---|--7-----7----------------7--7----------------|
----------------3-3-3---5-5-5---|----------0--0--0--0--0-------0--0--0--0--0--|


  >  v PM PM PM PM PM >  > v  >   >  v  
  E  S S  S  S  S  S  E  S S  E   S  S  
---------------------------------------|
---------------------------------------|
--9--9----------------5--5-x-12--12--x-|
--9--9----------------5--5-x-12--12--x-|
--7--7----------------3--3-x-10--10--x-|
-------0--0--0--0--0-------------------|


  >  v PM PM PM PM PM >  v PM PM PM PM PM  
  E  S S  S  S  S  S  E  S S  S  S  S  S   
------------------------------------------|
------------------------------------------|
--9--9----------------9--9----------------|
--9--9----------------9--9----------------|
--7--7----------------7--7----------------|
-------0--0--0--0--0-------0--0--0--0--0--|


  >  v PM PM PM PM PM >  > v  >   >  v  
  E  S S  S  S  S  S  E  S S  E   S  S  
---------------------------------------|
---------------------------------------|
--9--9----------------5--5-x-12--12--x-|
--9--9----------------5--5-x-12--12--x-|
--7--7----------------3--3-x-10--10--x-|
-------0--0--0--0--0-------------------|


  >  v PM PM PM PM PM >  v PM PM PM PM PM  
  E  S S  S  S  S  S  E  S S  S  S  S  S   
------------------------------------------|
------------------------------------------|
--9--9----------------9--9----------------|
--9--9----------------9--9----------------|
--7--7----------------7--7----------------|
-------0--0--0--0--0-------0--0--0--0--0--|


  >  v PM PM PM PM PM >  > v  >   >  v  
  E  S S  S  S  S  S  E  S S  E   S  S  
---------------------------------------|
---------------------------------------|
--9--9----------------5--5-x-12--12--x-|
--9--9----------------5--5-x-12--12--x-|
--7--7----------------3--3-x-10--10--x-|
-------0--0--0--0--0-------------------|


  >  v PM PM PM PM PM >  v PM PM PM PM PM  
  E  S S  S  S  S  S  E  S S  S  S  S  S   
------------------------------------------|
------------------------------------------|
--9--9----------------9--9----------------|
--9--9----------------9--9----------------|
--7--7----------------7--7----------------|
-------0--0--0--0--0-------0--0--0--0--0--|


                                          Pre-Coro             
  >  v PM PM PM PM PM >  > v  >   >  v                     v   
  E  S S  S  S  S  S  E  S S  E   S  S    H.           S S E   
---------------------------------------|----------------------|
---------------------------------------|----------------------|
--9--9----------------5--5-x-12--12--x-|--7------------L-7-9--|
--9--9----------------5--5-x-12--12--x-|--7------------L-7-9--|
--7--7----------------3--3-x-10--10--x-|--5------------L-5-7--|
-------0--0--0--0--0-------------------|----------------------|


                 v                             v                   v     v   
  H        S  S  E   E  E     H.           S S E     H         S S E.  S E   
---------------------------|----------------------|-------------------------|
---------------------------|----------------------|-------------------------|
--5--------L-12-12--11--9--|--7------------L-7-9--|--5---------L-------5-5--|
--5--------L-12-12--11--9--|--7------------L-7-9--|--5---------L-5-5---5-5--|
--3--------L-10-10---9--7--|--5------------L-5-7--|--3---------L-5-5---3-3--|
---------------------------|----------------------|--------------3-3--------|


                   v                    v                             v   
  H.           S S E     H        S  S  E   E  E     H.           S S E   
----------------------|---------------------------|----------------------|
----------------------|---------------------------|----------------------|
--7------------L-7-9--|--5--------L-12-12--11--9--|--7------------L-7-9--|
--7------------L-7-9--|--5--------L-12-12--11--9--|--7------------L-7-9--|
--5------------L-5-7--|--3--------L-10-10---9--7--|--5------------L-5-7--|
----------------------|---------------------------|----------------------|


                              Coro A                            
                v     v       ^      v ^ v ^     ^ v ^ v ^      
  H         S S E.  S E  S    S      S S S E  E  S S S S E  E   
---------------------------|-----------------------------------|
---------------------------|-----------------------------------|
--5---------L-------7-7--x-|--9------9-9-9-9-----5-5-5-5-5-----|
--5---------L-5-5---7-7--x-|--9------9-9-9-9-----5-5-5-5-5-----|
--3---------L-5-5---5-5--x-|--7------7-7-7-7-----3-3-3-3-3-----|
--------------3-3----------|-----------------------------------|


  ^ v ^ v ^     ^ v ^ v ^        ^ v ^ v ^      ^  v  ^  v  ^      
  S S S S E  E  S S S S E  E     S S S S E  E   S  S  S  S  E  E   
------------------------------|-----------------------------------|
------------------------------|-----------------------------------|
------------------------------|--9-9-9-9-9-----12-12-12-12-12-----|
--5-5-5-5-5-----7-7-7-7-7-----|--9-9-9-9-9-----12-12-12-12-12-----|
--5-5-5-5-5-----7-7-7-7-7-----|--7-7-7-7-7-----10-10-10-10-10-----|
--3-3-3-3-3-----5-5-5-5-5-----|-----------------------------------|


  ^ v ^ v ^     ^ v ^   ^ v ^      ^ v ^ v ^     ^ v ^ v ^      
  S S S S E  E  S S S S S S S S    S S S S E  E  S S S S E  E   
--------------------------------|------------------------------|
--------------------------------|------------------------------|
--5-5-5-5-5---------------------|--9-9-9-9-9-----5-5-5-5-5-----|
--5-5-5-5-5-----5-5-5---7-7-7---|--9-9-9-9-9-----5-5-5-5-5-----|
--3-3-3-3-3-----5-5-5---7-7-7---|--7-7-7-7-7-----3-3-3-3-3-----|
----------------3-3-3---5-5-5---|------------------------------|


  ^ v ^ v ^     ^ v ^ v ^        ^ v ^ v ^      ^  v  ^  v  ^      
  S S S S E  E  S S S S E  E     S S S S E  E   S  S  S  S  E  E   
------------------------------|-----------------------------------|
------------------------------|-----------------------------------|
------------------------------|--9-9-9-9-9-----12-12-12-12-12-----|
--5-5-5-5-5-----7-7-7-7-7-----|--9-9-9-9-9-----12-12-12-12-12-----|
--5-5-5-5-5-----7-7-7-7-7-----|--7-7-7-7-7-----10-10-10-10-10-----|
--3-3-3-3-3-----5-5-5-5-5-----|-----------------------------------|


                                   Interludio                     
  ^ v ^ v ^     ^ v ^   ^ v ^                 PM PM  PM           
  S S S S E  E  S S S S S S S S    Q          S  S   S H          
--------------------------------|--------------------------------|
--------------------------------|--------------------------------|
--5-5-5-5-5---------------------|--------------------------------|
--5-5-5-5-5-----5-5-5---7-7-7---|--------------------------------|
--3-3-3-3-3-----5-5-5---7-7-7---|--7~---------7--9--10-7~--------|
----------------3-3-3---5-5-5---|--------------------------------|


  PM PM  PMPM PM  PMPM PM  PMPM PM  PMPM PM  PM           PM PM  PM             
  E  S   S S  S   S S  S   S S  S   S S  S   S    Q     S S  S   S Q.      S S  
-----------------------------------------------|-----------------------------0-|
-----------------------------------------------|-------------------------------|
-----------------------------------------------|-------------------------------|
-----------7--------7--9-----7--9--10-9--7-----|-------------------------------|
--7--9--10----9--10-------10----------------10-|--7~----L-7--9--10-7~------L---|
-----------------------------------------------|-------------------------------|


                                                         PM PM  PM           
  S  S  S S S  S  S S S S  S  S  S  S  S  S     Q      S S  S   S H          
--0-12-10-0-0-14-12-0-0-0-14-15-17-15-14----|-------------------------------|
-----------------------------------------17-|--17~-----L--------------------|
--------------------------------------------|-------------------------------|
--------------------------------------------|-------------------------------|
--------------------------------------------|------------7--9--10-7~--------|
--------------------------------------------|-------------------------------|


  PM PM  PMPM PM  PMPM PM  PMPM PM  PMPM PM  PM           PM PM  PM             
  E  S   S S  S   S S  S   S S  S   S S  S   S    Q     S S  S   S Q.      S S  
-----------------------------------------------|-----------------------------0-|
-----------------------------------------------|-------------------------------|
-----------------------------------------------|-------------------------------|
-----------7--------7--9-----7--9--10-9--7-----|-------------------------------|
--7--9--10----9--10-------10----------------10-|--7~----L-7--9--10-7~------L---|
-----------------------------------------------|-------------------------------|


  S  S  S S S  S  S S S S  S  S  S  S  S  E   
--0-12-10-0-0-14-12-0-0-0-14-15-17-15-14-----|
-----------------------------------------17--|
---------------------------------------------|
---------------------------------------------|
---------------------------------------------|
---------------------------------------------|


   Solo Adrian Smith                               
                              SH                   
                                    |--3--|        
   Q                 Q        Q     S  S  S  S  S  
------------------------------------7h-8p-7-10p-7-|
---L----------------10b----<>10b------------------|
--------------------------------------------------|
--------------------------------------------------|
--------------------------------------------------|
--------------------------------------------------|


                                                             SH         SH      
   S S S S  S S S S  S S S S Q         E   S S  S S  S   S   S S S E    S  S S  
-----------------------------------|-------7-----------------------------------|
--10-0-8-0-10-0-8-0-10-0---0-------|--10b----7-10-7----------------------------|
-------------------------9---8~----|----------------10b-10-<>9-7---9--<>7~-----|
-----------------------------------|-----------------------------9---------4-4-|
-----------------------------------|-------------------------------------------|
-----------------------------------|-------------------------------------------|


  S S S S S S S S Q      E   E   
--------------------------------|
--------------------------------|
--------------------------------|
--7-5-4---5-5-4-----------------|
--------7-------7-6~----12\-----|
--------------------------------|


  |--3-|  |--3--| |--3-|  |--3--| |--3-|  |--3--| |--3-|  |--3--|  
  S S  S  S  S  S S S  S  S  S  S S S  S  S  S  S S S  S  S  S  S  
--2---------------2---------------3---------------3---------------|
----4p-0h-4p-0h-4---4p-0h-4p-0h-4---5p-0h-5p-0h-5---5p-0h-5p-0h-5-|
------------------------------------------------------------------|
------------------------------------------------------------------|
------------------------------------------------------------------|
------------------------------------------------------------------|


  |--3-|  |--3--| |--3-|  |--3--| |--3-|  |--3--| |3|       
  S S  S  S  S  S S S  S  S  S  S S S  S  S  S  S S E   E   
--5---------------5---------------7---------------7--------|
----7p-0h-7p-0h-7---7p-0h-7p-0h-7---8p-0h-8p-0h-8---8/--L--|
-----------------------------------------------------------|
-----------------------------------------------------------|
-----------------------------------------------------------|
-----------------------------------------------------------|


   |---3---|  |---3---|   |---3--|  |--3--|  |---3---|  |--3--|  |---3---|      
   S   S   S  S   S   S   S   S  S  S  S  S  S   S   S  S  S  S  S   S   S  E   
-------------17h-19h-20p-19p-17----17------------------17-----------------------
--17h-19h-20--------------------20----20-19-17h-19h-20----20-19-17h-20p-19-17~--
--------------------------------------------------------------------------------
--------------------------------------------------------------------------------
--------------------------------------------------------------------------------
--------------------------------------------------------------------------------


   |---3---|  |---3---|   |---3--|  |--3--|  |---3---|   |--3--|         
   S   S   S  S   S   S   S   S  S  S  S  S  S   S   S   S  S  S  Q      
-------------17h-19h-20p-19p-17----17-----------------------------------|
--17h-19h-20--------------------20----20-19-17h-20p-19p-17--------------|
-----------------------------------------------------------19-17-16~----|
------------------------------------------------------------------------|
------------------------------------------------------------------------|
------------------------------------------------------------------------|


  Interludio                     
             PM PM  PM           
  Q          S  S   S H          
--------------------------------|
--------------------------------|
--------------------------------|
--------------------------------|
--7~---------7--9--10-7~--------|
--------------------------------|


  PM PM  PMPM PM  PMPM PM  PMPM PM  PMPM PM  PM           PM PM  PM             
  E  S   S S  S   S S  S   S S  S   S S  S   S    Q     S S  S   S Q.      S S  
-----------------------------------------------|-----------------------------0-|
-----------------------------------------------|-------------------------------|
-----------------------------------------------|-------------------------------|
-----------7--------7--9-----7--9--10-9--7-----|-------------------------------|
--7--9--10----9--10-------10----------------10-|--7~----L-7--9--10-7~------L---|
-----------------------------------------------|-------------------------------|


                                                         PM PM  PM           
  S  S  S S S  S  S S S S  S  S  S  S  S  S     Q      S S  S   S H          
--0-12-10-0-0-14-12-0-0-0-14-15-17-15-14----|-------------------------------|
-----------------------------------------17-|--17~-----L--------------------|
--------------------------------------------|-------------------------------|
--------------------------------------------|-------------------------------|
--------------------------------------------|------------7--9--10-7~--------|
--------------------------------------------|-------------------------------|


  PM PM  PMPM PM  PMPM PM  PMPM PM  PMPM PM  PM           PM PM  PM             
  E  S   S S  S   S S  S   S S  S   S S  S   S    Q     S S  S   S Q.      S S  
-----------------------------------------------|-----------------------------0-|
-----------------------------------------------|-------------------------------|
-----------------------------------------------|-------------------------------|
-----------7--------7--9-----7--9--10-9--7-----|-------------------------------|
--7--9--10----9--10-------10----------------10-|--7~----L-7--9--10-7~------L---|
-----------------------------------------------|-------------------------------|


  S  S  S S S  S  S S S S  S  S  S  S  S  E    
--0-12-10-0-0-14-12-0-0-0-14-15-17-15-14------|
-----------------------------------------17~--|
----------------------------------------------|
----------------------------------------------|
----------------------------------------------|
----------------------------------------------|


  Coro A                                                           
  ^      v ^ v ^     ^ v ^ v ^        ^ v ^ v ^     ^ v ^ v ^      
  S      S S S E  E  S S S S E  E     S S S S E  E  S S S S E  E   
-----------------------------------|------------------------------|
-----------------------------------|------------------------------|
--9------9-9-9-9-----5-5-5-5-5-----|------------------------------|
--9------9-9-9-9-----5-5-5-5-5-----|--5-5-5-5-5-----7-7-7-7-7-----|
--7------7-7-7-7-----3-3-3-3-3-----|--5-5-5-5-5-----7-7-7-7-7-----|
-----------------------------------|--3-3-3-3-3-----5-5-5-5-5-----|


  ^ v ^ v ^      ^  v  ^  v  ^        ^ v ^ v ^     ^ v ^   ^ v ^    
  S S S S E  E   S  S  S  S  E  E     S S S S E  E  S S S S S S S S  
-----------------------------------|--------------------------------|
-----------------------------------|--------------------------------|
--9-9-9-9-9-----12-12-12-12-12-----|--5-5-5-5-5---------------------|
--9-9-9-9-9-----12-12-12-12-12-----|--5-5-5-5-5-----5-5-5---7-7-7---|
--7-7-7-7-7-----10-10-10-10-10-----|--3-3-3-3-3-----5-5-5---7-7-7---|
-----------------------------------|----------------3-3-3---5-5-5---|


  ^ v ^ v ^     ^ v ^ v ^        ^ v ^ v ^     ^ v ^ v ^      
  S S S S E  E  S S S S E  E     S S S S E  E  S S S S E  E   
------------------------------|------------------------------|
------------------------------|------------------------------|
--9-9-9-9-9-----5-5-5-5-5-----|------------------------------|
--9-9-9-9-9-----5-5-5-5-5-----|--5-5-5-5-5-----7-7-7-7-7-----|
--7-7-7-7-7-----3-3-3-3-3-----|--5-5-5-5-5-----7-7-7-7-7-----|
------------------------------|--3-3-3-3-3-----5-5-5-5-5-----|


  ^ v ^ v ^      ^  v  ^  v  ^        ^ v ^ v ^     ^ v ^   ^ v ^    
  S S S S E  E   S  S  S  S  E  E     S S S S E  E  S S S S S S S S  
-----------------------------------|--------------------------------|
-----------------------------------|--------------------------------|
--9-9-9-9-9-----12-12-12-12-12-----|--5-5-5-5-5---------------------|
--9-9-9-9-9-----12-12-12-12-12-----|--5-5-5-5-5-----5-5-5---7-7-7---|
--7-7-7-7-7-----10-10-10-10-10-----|--3-3-3-3-3-----5-5-5---7-7-7---|
-----------------------------------|----------------3-3-3---5-5-5---|


  ^ v ^ v ^     ^ v ^ v ^        ^ v ^ v ^     ^ v ^ v ^      
  S S S S E  E  S S S S E  E     S S S S E  E  S S S S E  E   
------------------------------|------------------------------|
------------------------------|------------------------------|
--9-9-9-9-9-----5-5-5-5-5-----|------------------------------|
--9-9-9-9-9-----5-5-5-5-5-----|--5-5-5-5-5-----7-7-7-7-7-----|
--7-7-7-7-7-----3-3-3-3-3-----|--5-5-5-5-5-----7-7-7-7-7-----|
------------------------------|--3-3-3-3-3-----5-5-5-5-5-----|


  ^ v ^ v ^      ^  v  ^  v  ^        ^ v ^ v ^     ^ v ^   ^ v ^    
  S S S S E  E   S  S  S  S  E  E     S S S S E  E  S S S S S S S S  
-----------------------------------|--------------------------------|
-----------------------------------|--------------------------------|
--9-9-9-9-9-----12-12-12-12-12-----|--5-5-5-5-5---------------------|
--9-9-9-9-9-----12-12-12-12-12-----|--5-5-5-5-5-----5-5-5---7-7-7---|
--7-7-7-7-7-----10-10-10-10-10-----|--3-3-3-3-3-----5-5-5---7-7-7---|
-----------------------------------|----------------3-3-3---5-5-5---|


  ^ v ^ v ^     ^ v ^ v ^        ^ v ^ v ^     ^ v ^ v ^      
  S S S S E  E  S S S S E  E     S S S S E  E  S S S S E  E   
------------------------------|------------------------------|
------------------------------|------------------------------|
--9-9-9-9-9-----5-5-5-5-5-----|------------------------------|
--9-9-9-9-9-----5-5-5-5-5-----|--5-5-5-5-5-----7-7-7-7-7-----|
--7-7-7-7-7-----3-3-3-3-3-----|--5-5-5-5-5-----7-7-7-7-7-----|
------------------------------|--3-3-3-3-3-----5-5-5-5-5-----|


  ^ v ^ v ^      ^  v  ^  v  ^        ^ v ^ v ^     ^ v ^   ^ v ^    
  S S S S E  E   S  S  S  S  E  E     S S S S E  E  S S S S S S S S  
-----------------------------------|--------------------------------|
-----------------------------------|--------------------------------|
--9-9-9-9-9-----12-12-12-12-12-----|--5-5-5-5-5---------------------|
--9-9-9-9-9-----12-12-12-12-12-----|--5-5-5-5-5-----5-5-5---7-7-7---|
--7-7-7-7-7-----10-10-10-10-10-----|--3-3-3-3-3-----5-5-5---7-7-7---|
-----------------------------------|----------------3-3-3---5-5-5---|


  Coro B                                                                        
  W                   W                   W                   W                 
-------------------|-------------------|-------------------|-------------------|
-------------------|-------------------|-------------------|-------------------|
--9----------------|--5----------------|-------------------|--7----------------|
--9----------------|--5----------------|--5----------------|--7----------------|
--7----------------|--3----------------|--5----------------|--5----------------|
-------------------|-------------------|--3----------------|-------------------|


  W                   W                   W                   W                 
-------------------|-------------------|-------------------|-------------------|
-------------------|-------------------|-------------------|-------------------|
--9----------------|--5----------------|-------------------|--7----------------|
--9----------------|--5----------------|--5----------------|--7----------------|
--7----------------|--3----------------|--5----------------|--5----------------|
-------------------|-------------------|--3----------------|-------------------|


  Outro                                                  
  Q      E  Q     E   Q        Q     E  Q     E   Q      
----------------------------|---------------------------|
----------------------------|---------------------------|
----------------------------|---------------------------|
---------9--7-----9--10~----|--------9--7-----9--10~----|
--------10--9----10--12~----|-------10--9----10--12~----|
----------------------------|---------------------------|


  Q     E  Q     E   Q        Q     E  Q    E  Q      
---------------------------|-------------------------|
---------------------------|-------------------------|
---------------------------|-------------------------|
--------9--7-----9--10~----|--------9--7----5--4~----|
-------10--9----10--12~----|-------10--9----7--5~----|
---------------------------|-------------------------|


  Q     E  Q     E   Q        Q     E  Q     E   Q      
---------------------------|---------------------------|
---------------------------|---------------------------|
---------------------------|---------------------------|
--------9--7-----9--10~----|--------9--7-----9--10~----|
-------10--9----10--12~----|-------10--9----10--12~----|
---------------------------|---------------------------|


  Q     E  Q     E   Q        Q     Q.     Q.        W                 
---------------------------|----------------------|-------------------|
---------------------------|----------------------|-------------------|
---------------------------|----------------------|-------------------|
--------9--7-----9--10~----|--------9------7------|--4----------------|
-------10--9----10--12~----|-------10------9------|--5----------------|
---------------------------|----------------------|-------------------|


  W                  
-------------------||
-------------------||
-------------------||
--L----------------||
--L----------------||
-------------------||




Guitar #2:

Dave Murray

          Intro                                          
     S    S        W                   W                 
E||----|--------|-------------------|-------------------|
B||----|--------|-------------------|-------------------|
G||----|--------|-------------------|-------------------|
D||----|--------|-------------------|-------------------|
A||----|--------|-------------------|-------------------|
E||----|--------|-------------------|-------------------|


     v           v              v             v         v  
  E  S S Q    E  S S Q       E  S S Q    E  S S  E   S  S  
--------------------------|-------------------------------|
--------------------------|-------------------------------|
--------------------------|-------------------------------|
--9--9--------9--9--------|--9--9--------5--5-x-12--12--x-|
--7--7--------7--7--------|--7--7--------3--3-x-10--10--x-|
--------------------------|-------------------------------|


     v PM PM PM PM PM    v PM PM PM PM PM  
  E  S S  S  S  S  S  E  S S  S  S  S  S   
------------------------------------------|
------------------------------------------|
------------------------------------------|
--9--9----------------9--9----------------|
--7--7----------------7--7----------------|
-------0--0--0--0--0-------0--0--0--0--0--|


     v PM PM PM PM PM      v         v  
  E  S S  S  S  S  S  E  S S  E   S  S  
---------------------------------------|
---------------------------------------|
---------------------------------------|
--9--9----------------5--5-x-12--12--x-|
--7--7----------------3--3-x-10--10--x-|
-------0--0--0--0--0-------------------|


     v PM PM PM PM PM    v PM PM PM PM PM  
  E  S S  S  S  S  S  E  S S  S  S  S  S   
------------------------------------------|
------------------------------------------|
------------------------------------------|
--9--9----------------9--9----------------|
--7--7----------------7--7----------------|
-------0--0--0--0--0-------0--0--0--0--0--|


     v PM PM PM PM PM      v         v  
  E  S S  S  S  S  S  E  S S  E   S  S  
---------------------------------------|
---------------------------------------|
---------------------------------------|
--9--9----------------5--5-x-12--12--x-|
--7--7----------------3--3-x-10--10--x-|
-------0--0--0--0--0-------------------|


  Verso                                       
        v PM PM PM PM PM    v PM PM PM PM PM  
  E     S S  S  S  S  S  E  S S  S  S  S  S   
---------------------------------------------|
---------------------------------------------|
---------------------------------------------|
--9-----9----------------9--9----------------|
--7-----7----------------7--7----------------|
----------0--0--0--0--0-------0--0--0--0--0--|


     v PM PM PM PM PM      v         v  
  E  S S  S  S  S  S  E  S S  E   S  S  
---------------------------------------|
---------------------------------------|
---------------------------------------|
--9--9----------------5--5-x-12--12--x-|
--7--7----------------3--3-x-10--10--x-|
-------0--0--0--0--0-------------------|


     v PM PM PM PM PM    v PM PM PM PM PM  
  E  S S  S  S  S  S  E  S S  S  S  S  S   
------------------------------------------|
------------------------------------------|
------------------------------------------|
--9--9----------------9--9----------------|
--7--7----------------7--7----------------|
-------0--0--0--0--0-------0--0--0--0--0--|


     v PM PM PM PM PM      v         v  
  E  S S  S  S  S  S  E  S S  E   S  S  
---------------------------------------|
---------------------------------------|
---------------------------------------|
--9--9----------------5--5-x-12--12--x-|
--7--7----------------3--3-x-10--10--x-|
-------0--0--0--0--0-------------------|


     v PM PM PM PM PM    v PM PM PM PM PM  
  E  S S  S  S  S  S  E  S S  S  S  S  S   
------------------------------------------|
------------------------------------------|
------------------------------------------|
--9--9----------------9--9----------------|
--7--7----------------7--7----------------|
-------0--0--0--0--0-------0--0--0--0--0--|


     v PM PM PM PM PM      v         v  
  E  S S  S  S  S  S  E  S S  E   S  S  
---------------------------------------|
---------------------------------------|
---------------------------------------|
--9--9----------------5--5-x-12--12--x-|
--7--7----------------3--3-x-10--10--x-|
-------0--0--0--0--0-------------------|


     v PM PM PM PM PM    v PM PM PM PM PM  
  E  S S  S  S  S  S  E  S S  S  S  S  S   
------------------------------------------|
------------------------------------------|
------------------------------------------|
--9--9----------------9--9----------------|
--7--7----------------7--7----------------|
-------0--0--0--0--0-------0--0--0--0--0--|


                                          Pre-Coro             
     v PM PM PM PM PM      v         v                     v   
  E  S S  S  S  S  S  E  S S  E   S  S    H.           S S E   
---------------------------------------|----------------------|
---------------------------------------|----------------------|
---------------------------------------|----------------------|
--9--9----------------5--5-x-12--12--x-|--7------------L-7-9--|
--7--7----------------3--3-x-10--10--x-|--5------------L-5-7--|
-------0--0--0--0--0-------------------|----------------------|


                 v                             v                  v     v   
  H        S  S  E   E  E     H.           S S E     H        S S E.  S E   
---------------------------|----------------------|------------------------|
---------------------------|----------------------|------------------------|
---------------------------|----------------------|------------------------|
--5--------L-12-12--11--9--|--7------------L-7-9--|--5--------L-------5-5--|
--3--------L-10-10---9--7--|--5------------L-5-7--|--3--------L-5-5---3-3--|
---------------------------|----------------------|-------------3-3--------|


                   v                    v                             v   
  H.           S S E     H        S  S  E   E  E     H.           S S E   
----------------------|---------------------------|----------------------|
----------------------|---------------------------|----------------------|
----------------------|---------------------------|----------------------|
--7------------L-7-9--|--5--------L-12-12--11--9--|--7------------L-7-9--|
--5------------L-5-7--|--3--------L-10-10---9--7--|--5------------L-5-7--|
----------------------|---------------------------|----------------------|


                              Coro A                                        
               v     v                                                      
  H        S S E.  S E  S     S      S  S  S  S  S E   S  S  S  S  S  S E   
--------------------------|------------------------------------------------|
--------------------------|--12-----10-12-10-12-------12-10-12-10-12-------|
--------------------------|---------------------12-------------------12----|
--5--------L-------7-7--x-|------------------------------------------------|
--3--------L-5-5---5-5--x-|------------------------------------------------|
-------------3-3----------|------------------------------------------------|


   S  S  S  S  S  S E   S  S  S  S  S  S E   
--------------------------------------------|
--12-10-12-10-12-------12-10-12-13-12-------|
-----------------12-------------------12----|
--------------------------------------------|
--------------------------------------------|
--------------------------------------------|


   S  S  S  S  S  S E   S  S  S  S  S  S E   
--------------------------------------------|
--12-10-12-10-12-------12-10-12-10-12-------|
-----------------12-------------------12----|
--------------------------------------------|
--------------------------------------------|
--------------------------------------------|


   S  S  S  S  S  S E   S  S  S  S  S  S E   
--------------------------------------------|
--12-10-12-10-12-------12-10-12-13-12-------|
-----------------12-------------------12----|
--------------------------------------------|
--------------------------------------------|
--------------------------------------------|


   S  S  S  S  S  S E   S  S  S  S  S  S E   
--------------------------------------------|
--12-10-12-10-12-------12-10-12-10-12-------|
-----------------12-------------------12----|
--------------------------------------------|
--------------------------------------------|
--------------------------------------------|


   S  S  S  S  S  S E   S  S  S  S  S  S E   
--------------------------------------------|
--12-10-12-10-12-------12-10-12-13-12-------|
-----------------12-------------------12----|
--------------------------------------------|
--------------------------------------------|
--------------------------------------------|


   S  S  S  S  S  S E   S  S  S  S  S  S E   
--------------------------------------------|
--12-10-12-10-12-------12-10-12-10-12-------|
-----------------12-------------------12----|
--------------------------------------------|
--------------------------------------------|
--------------------------------------------|


   S  S  S  S  S  S E   S  S  S  S  S  S E   
--------------------------------------------|
--12-10-12-10-12-------12-10-12-13-12-------|
-----------------12-------------------12----|
--------------------------------------------|
--------------------------------------------|
--------------------------------------------|


  Verso                                       
        v PM PM PM PM PM    v PM PM PM PM PM  
  E     S S  S  S  S  S  E  S S  S  S  S  S   
---------------------------------------------|
---------------------------------------------|
---------------------------------------------|
--9-----9----------------9--9----------------|
--7-----7----------------7--7----------------|
----------0--0--0--0--0-------0--0--0--0--0--|


     v PM PM PM PM PM      v         v  
  E  S S  S  S  S  S  E  S S  E   S  S  
---------------------------------------|
---------------------------------------|
---------------------------------------|
--9--9----------------5--5-x-12--12--x-|
--7--7----------------3--3-x-10--10--x-|
-------0--0--0--0--0-------------------|


     v PM PM PM PM PM    v PM PM PM PM PM  
  E  S S  S  S  S  S  E  S S  S  S  S  S   
------------------------------------------|
------------------------------------------|
------------------------------------------|
--9--9----------------9--9----------------|
--7--7----------------7--7----------------|
-------0--0--0--0--0-------0--0--0--0--0--|


     v PM PM PM PM PM      v         v  
  E  S S  S  S  S  S  E  S S  E   S  S  
---------------------------------------|
---------------------------------------|
---------------------------------------|
--9--9----------------5--5-x-12--12--x-|
--7--7----------------3--3-x-10--10--x-|
-------0--0--0--0--0-------------------|


     v PM PM PM PM PM    v PM PM PM PM PM  
  E  S S  S  S  S  S  E  S S  S  S  S  S   
------------------------------------------|
------------------------------------------|
------------------------------------------|
--9--9----------------9--9----------------|
--7--7----------------7--7----------------|
-------0--0--0--0--0-------0--0--0--0--0--|


     v PM PM PM PM PM      v         v  
  E  S S  S  S  S  S  E  S S  E   S  S  
---------------------------------------|
---------------------------------------|
---------------------------------------|
--9--9----------------5--5-x-12--12--x-|
--7--7----------------3--3-x-10--10--x-|
-------0--0--0--0--0-------------------|


     v PM PM PM PM PM    v PM PM PM PM PM  
  E  S S  S  S  S  S  E  S S  S  S  S  S   
------------------------------------------|
------------------------------------------|
------------------------------------------|
--9--9----------------9--9----------------|
--7--7----------------7--7----------------|
-------0--0--0--0--0-------0--0--0--0--0--|


                                          Pre-Coro             
     v PM PM PM PM PM      v         v                     v   
  E  S S  S  S  S  S  E  S S  E   S  S    H.           S S E   
---------------------------------------|----------------------|
---------------------------------------|----------------------|
---------------------------------------|----------------------|
--9--9----------------5--5-x-12--12--x-|--7------------L-7-9--|
--7--7----------------3--3-x-10--10--x-|--5------------L-5-7--|
-------0--0--0--0--0-------------------|----------------------|


                 v                             v                  v     v   
  H        S  S  E   E  E     H.           S S E     H        S S E.  S E   
---------------------------|----------------------|------------------------|
---------------------------|----------------------|------------------------|
---------------------------|----------------------|------------------------|
--5--------L-12-12--11--9--|--7------------L-7-9--|--5--------L-------5-5--|
--3--------L-10-10---9--7--|--5------------L-5-7--|--3--------L-5-5---3-3--|
---------------------------|----------------------|-------------3-3--------|


                   v                    v                             v   
  H.           S S E     H        S  S  E   E  E     H.           S S E   
----------------------|---------------------------|----------------------|
----------------------|---------------------------|----------------------|
----------------------|---------------------------|----------------------|
--7------------L-7-9--|--5--------L-12-12--11--9--|--7------------L-7-9--|
--5------------L-5-7--|--3--------L-10-10---9--7--|--5------------L-5-7--|
----------------------|---------------------------|----------------------|


                              Coro A                                        
               v     v                                                      
  H        S S E.  S E  S     S      S  S  S  S  S E   S  S  S  S  S  S E   
--------------------------|------------------------------------------------|
--------------------------|--12-----10-12-10-12-------12-10-12-10-12-------|
--------------------------|---------------------12-------------------12----|
--5--------L-------7-7--x-|------------------------------------------------|
--3--------L-5-5---5-5--x-|------------------------------------------------|
-------------3-3----------|------------------------------------------------|


   S  S  S  S  S  S E   S  S  S  S  S  S E   
--------------------------------------------|
--12-10-12-10-12-------12-10-12-13-12-------|
-----------------12-------------------12----|
--------------------------------------------|
--------------------------------------------|
--------------------------------------------|


   S  S  S  S  S  S E   S  S  S  S  S  S E   
--------------------------------------------|
--12-10-12-10-12-------12-10-12-10-12-------|
-----------------12-------------------12----|
--------------------------------------------|
--------------------------------------------|
--------------------------------------------|


   S  S  S  S  S  S E   S  S  S  S  S  S E   
--------------------------------------------|
--12-10-12-10-12-------12-10-12-13-12-------|
-----------------12-------------------12----|
--------------------------------------------|
--------------------------------------------|
--------------------------------------------|


   S  S  S  S  S  S E   S  S  S  S  S  S E   
--------------------------------------------|
--12-10-12-10-12-------12-10-12-10-12-------|
-----------------12-------------------12----|
--------------------------------------------|
--------------------------------------------|
--------------------------------------------|


   S  S  S  S  S  S E   S  S  S  S  S  S E   
--------------------------------------------|
--12-10-12-10-12-------12-10-12-13-12-------|
-----------------12-------------------12----|
--------------------------------------------|
--------------------------------------------|
--------------------------------------------|


   S  S  S  S  S  S E   S  S  S  S  S  S E   
--------------------------------------------|
--12-10-12-10-12-------12-10-12-10-12-------|
-----------------12-------------------12----|
--------------------------------------------|
--------------------------------------------|
--------------------------------------------|


   S  S  S  S  S  S E   S  S  S  S  S  S E   
--------------------------------------------|
--12-10-12-10-12-------12-10-12-13-12-------|
-----------------12-------------------12----|
--------------------------------------------|
--------------------------------------------|
--------------------------------------------|


  Interludio                                    
  >          v PM PM PM PM >  v PM PM PM PM PM  
  E          S S  S  S  S  E  S S  S  S  S  S   
-----------------------------------------------|
-----------------------------------------------|
--9----------9-------------9--9----------------|
--9----------9-------------9--9----------------|
--7----------7-7--7--7--7--7--7-7--7--7--7--7--|
-----------------------------------------------|


  >  v PM PM PM PM PM > >  v > >  v    >  v PM PM PM PM PM >  v PM PM PM PM PM  
  E  S S  S  S  S  S  S E  S S E  S    E  S S  S  S  S  S  E  S S  S  S  S  S   
------------------------------------|------------------------------------------|
------------------------------------|------------------------------------------|
--5--5-----------------------7-7--x-|--9--9----------------9--9----------------|
--5--5----------------5-5--x-7-7--x-|--9--9----------------9--9----------------|
--3--3-3--3--3--3--3--5-5--x-5-5--x-|--7--7-7--7--7--7--7--7--7-7--7--7--7--7--|
----------------------3-3--x--------|------------------------------------------|


  >  v PM PM PM PM PM > >  v > >  v    >  v PM PM PM PM PM >  v PM PM PM PM PM  
  E  S S  S  S  S  S  S E  S S E  S    E  S S  S  S  S  S  E  S S  S  S  S  S   
------------------------------------|------------------------------------------|
------------------------------------|------------------------------------------|
--5--5-----------------------7-7--x-|--9--9----------------9--9----------------|
--5--5----------------5-5--x-7-7--x-|--9--9----------------9--9----------------|
--3--3-3--3--3--3--3--5-5--x-5-5--x-|--7--7-7--7--7--7--7--7--7-7--7--7--7--7--|
----------------------3-3--x--------|------------------------------------------|


  >  v PM PM PM PM PM > >  v > >  v    >  v PM PM PM PM PM >  v PM PM PM PM PM  
  E  S S  S  S  S  S  S E  S S E  S    E  S S  S  S  S  S  E  S S  S  S  S  S   
------------------------------------|------------------------------------------|
------------------------------------|------------------------------------------|
--5--5-----------------------7-7--x-|--9--9----------------9--9----------------|
--5--5----------------5-5--x-7-7--x-|--9--9----------------9--9----------------|
--3--3-3--3--3--3--3--5-5--x-5-5--x-|--7--7-7--7--7--7--7--7--7-7--7--7--7--7--|
----------------------3-3--x--------|------------------------------------------|


  >  v PM PM PM PM PM > >  v > >  v   
  E  S S  S  S  S  S  S E  S S E  E   
-------------------------------------|
-------------------------------------|
--5--5-----------------------7-7--x--|
--5--5----------------5-5--x-7-7--x--|
--3--3-3--3--3--3--3--5-5--x-5-5--x--|
----------------------3-3--x---------|


  Solo Adrian Smith                                       
  PM                PM PM PM ^ v ^   PM PM PM PM ^ v ^    
  S                 S  S  S  S S S S S  S  S  S  S S S S  
---------------------------------------------------------|
---------------------------------------------------------|
---------------------------------------------------------|
--9-----------------9--9--9--9-9-9---7--7--7--7--7-7-7---|
--9-----------------9--9--9--9-9-9---7--7--7--7--7-7-7---|
--7-----------------7--7--7--7-7-7---5--5--5--5--5-5-5---|


  PM PM PM PM ^ v ^   PM PM PM PM ^ v ^    
  S  S  S  S  S S S S S  S  S  S  S S S S  
------------------------------------------|
------------------------------------------|
------------------------------------------|
--5--5--5--5--5-5-5---7--7--7--7--7-7-7---|
--5--5--5--5--5-5-5---7--7--7--7--7-7-7---|
--3--3--3--3--3-3-3---5--5--5--5--5-5-5---|


  PM PM PM PM ^ v ^   PM PM PM PM ^ v ^    
  S  S  S  S  S S S S S  S  S  S  S S S S  
------------------------------------------|
------------------------------------------|
------------------------------------------|
--9--9--9--9--9-9-9---7--7--7--7--7-7-7---|
--9--9--9--9--9-9-9---7--7--7--7--7-7-7---|
--7--7--7--7--7-7-7---5--5--5--5--5-5-5---|


  PM PM PM PM ^ v ^   ^ v ^ v ^ v ^    
  S  S  S  S  S S S S S S S S S S S S  
--------------------------------------|
--------------------------------------|
----------------------5-5-5-5-5-5-5---|
--5--5--5--5--5-5-5---5-5-5-5-5-5-5---|
--5--5--5--5--5-5-5---3-3-3-3-3-3-3---|
--3--3--3--3--3-3-3-------------------|


  PM PM PM PM ^ v ^   PM PM PM PM ^ v ^    
  S  S  S  S  S S S S S  S  S  S  S S S S  
------------------------------------------|
------------------------------------------|
------------------------------------------|
--9--9--9--9--9-9-9---7--7--7--7--7-7-7---|
--9--9--9--9--9-9-9---7--7--7--7--7-7-7---|
--7--7--7--7--7-7-7---5--5--5--5--5-5-5---|


  PM PM PM PM ^ v ^   PM PM PM PM ^ v ^    
  S  S  S  S  S S S S S  S  S  S  S S S S  
------------------------------------------|
------------------------------------------|
------------------------------------------|
--5--5--5--5--5-5-5---7--7--7--7--7-7-7---|
--5--5--5--5--5-5-5---7--7--7--7--7-7-7---|
--3--3--3--3--3-3-3---5--5--5--5--5-5-5---|


  PM PM PM PM ^ v ^   PM PM PM PM ^ v ^    
  S  S  S  S  S S S S S  S  S  S  S S S S  
------------------------------------------|
------------------------------------------|
------------------------------------------|
--9--9--9--9--9-9-9---7--7--7--7--7-7-7---|
--9--9--9--9--9-9-9---7--7--7--7--7-7-7---|
--7--7--7--7--7-7-7---5--5--5--5--5-5-5---|


  PM PM PM PM ^ v ^                    
  S  S  S  S  S S S S S S S S S S S S  
--------------------------------------|
--------------------------------------|
----------------------5-5-5-5-5-5-5-5-|
--5--5--5--5--5-5-5---5-5-5-5-5-5-5-5-|
--5--5--5--5--5-5-5---3-3-3-3-3-3-3-3-|
--3--3--3--3--3-3-3-------------------|


  Interludio                                    
  >          v PM PM PM PM >  v PM PM PM PM PM  
  E          S S  S  S  S  E  S S  S  S  S  S   
-----------------------------------------------|
-----------------------------------------------|
--9----------9-------------9--9----------------|
--9----------9-------------9--9----------------|
--7----------7-7--7--7--7--7--7-7--7--7--7--7--|
-----------------------------------------------|


  >  v PM PM PM PM PM > >  v > >  v    >  v PM PM PM PM PM >  v PM PM PM PM PM  
  E  S S  S  S  S  S  S E  S S E  S    E  S S  S  S  S  S  E  S S  S  S  S  S   
------------------------------------|------------------------------------------|
------------------------------------|------------------------------------------|
--5--5-----------------------7-7--x-|--9--9----------------9--9----------------|
--5--5----------------5-5--x-7-7--x-|--9--9----------------9--9----------------|
--3--3-3--3--3--3--3--5-5--x-5-5--x-|--7--7-7--7--7--7--7--7--7-7--7--7--7--7--|
----------------------3-3--x--------|------------------------------------------|


  >  v PM PM PM PM PM > >  v > >  v    >  v PM PM PM PM PM >  v PM PM PM PM PM  
  E  S S  S  S  S  S  S E  S S E  S    E  S S  S  S  S  S  E  S S  S  S  S  S   
------------------------------------|------------------------------------------|
------------------------------------|------------------------------------------|
--5--5-----------------------7-7--x-|--9--9----------------9--9----------------|
--5--5----------------5-5--x-7-7--x-|--9--9----------------9--9----------------|
--3--3-3--3--3--3--3--5-5--x-5-5--x-|--7--7-7--7--7--7--7--7--7-7--7--7--7--7--|
----------------------3-3--x--------|------------------------------------------|


  >  v PM PM PM PM PM > >  v > >  v    >  v PM PM PM PM PM >  v PM PM PM PM PM  
  E  S S  S  S  S  S  S E  S S E  S    E  S S  S  S  S  S  E  S S  S  S  S  S   
------------------------------------|------------------------------------------|
------------------------------------|------------------------------------------|
--5--5-----------------------7-7--x-|--9--9----------------9--9----------------|
--5--5----------------5-5--x-7-7--x-|--9--9----------------9--9----------------|
--3--3-3--3--3--3--3--5-5--x-5-5--x-|--7--7-7--7--7--7--7--7--7-7--7--7--7--7--|
----------------------3-3--x--------|------------------------------------------|


  >  v PM PM PM PM PM > >  v > >  v   
  E  S S  S  S  S  S  S E  S S E  E   
-------------------------------------|
-------------------------------------|
--5--5-----------------------7-7--x--|
--5--5----------------5-5--x-7-7--x--|
--3--3-3--3--3--3--3--5-5--x-5-5--x--|
----------------------3-3--x---------|


   Coro A                                        
   S      S  S  S  S  S E   S  S  S  S  S  S E   
------------------------------------------------|
--12-----10-12-10-12-------12-10-12-10-12-------|
---------------------12-------------------12----|
------------------------------------------------|
------------------------------------------------|
------------------------------------------------|


   S  S  S  S  S  S E   S  S  S  S  S  S E   
--------------------------------------------|
--12-10-12-10-12-------12-10-12-13-12-------|
-----------------12-------------------12----|
--------------------------------------------|
--------------------------------------------|
--------------------------------------------|


   S  S  S  S  S  S E   S  S  S  S  S  S E   
--------------------------------------------|
--12-10-12-10-12-------12-10-12-10-12-------|
-----------------12-------------------12----|
--------------------------------------------|
--------------------------------------------|
--------------------------------------------|


   S  S  S  S  S  S E   S  S  S  S  S  S E   
--------------------------------------------|
--12-10-12-10-12-------12-10-12-13-12-------|
-----------------12-------------------12----|
--------------------------------------------|
--------------------------------------------|
--------------------------------------------|


   S  S  S  S  S  S E   S  S  S  S  S  S E   
--------------------------------------------|
--12-10-12-10-12-------12-10-12-10-12-------|
-----------------12-------------------12----|
--------------------------------------------|
--------------------------------------------|
--------------------------------------------|


   S  S  S  S  S  S E   S  S  S  S  S  S E   
--------------------------------------------|
--12-10-12-10-12-------12-10-12-13-12-------|
-----------------12-------------------12----|
--------------------------------------------|
--------------------------------------------|
--------------------------------------------|


   S  S  S  S  S  S E   S  S  S  S  S  S E   
--------------------------------------------|
--12-10-12-10-12-------12-10-12-10-12-------|
-----------------12-------------------12----|
--------------------------------------------|
--------------------------------------------|
--------------------------------------------|


   S  S  S  S  S  S E   S  S  S  S  S  S E   
--------------------------------------------|
--12-10-12-10-12-------12-10-12-13-12-------|
-----------------12-------------------12----|
--------------------------------------------|
--------------------------------------------|
--------------------------------------------|


   S  S  S  S  S  S E   S  S  S  S  S  S E   
--------------------------------------------|
--12-10-12-10-12-------12-10-12-10-12-------|
-----------------12-------------------12----|
--------------------------------------------|
--------------------------------------------|
--------------------------------------------|


   S  S  S  S  S  S E   S  S  S  S  S  S E   
--------------------------------------------|
--12-10-12-10-12-------12-10-12-13-12-------|
-----------------12-------------------12----|
--------------------------------------------|
--------------------------------------------|
--------------------------------------------|


   S  S  S  S  S  S E   S  S  S  S  S  S E   
--------------------------------------------|
--12-10-12-10-12-------12-10-12-10-12-------|
-----------------12-------------------12----|
--------------------------------------------|
--------------------------------------------|
--------------------------------------------|


   S  S  S  S  S  S E   S  S  S  S  S  S E   
--------------------------------------------|
--12-10-12-10-12-------12-10-12-13-12-------|
-----------------12-------------------12----|
--------------------------------------------|
--------------------------------------------|
--------------------------------------------|


   S  S  S  S  S  S E   S  S  S  S  S  S E   
--------------------------------------------|
--12-10-12-10-12-------12-10-12-10-12-------|
-----------------12-------------------12----|
--------------------------------------------|
--------------------------------------------|
--------------------------------------------|


   S  S  S  S  S  S E   S  S  S  S  S  S E   
--------------------------------------------|
--12-10-12-10-12-------12-10-12-13-12-------|
-----------------12-------------------12----|
--------------------------------------------|
--------------------------------------------|
--------------------------------------------|


   S  S  S  S  S  S E   S  S  S  S  S  S E   
--------------------------------------------|
--12-10-12-10-12-------12-10-12-10-12-------|
-----------------12-------------------12----|
--------------------------------------------|
--------------------------------------------|
--------------------------------------------|


                                               Coro B            
   S  S  S  S  S  S E   S  S  S  S  S  S E     W                 
--------------------------------------------|-------------------|
--12-10-12-10-12-------12-10-12-13-12-------|-------------------|
-----------------12-------------------12----|-------------------|
--------------------------------------------|--2----------------|
--------------------------------------------|--2----------------|
--------------------------------------------|--0----------------|


  W                   W                   W                   W                 
-------------------|-------------------|-------------------|-------------------|
----------------            
Submit corrections


        The Wicker Man  lessons Hard to play? Try these video lessons and learn fast The Wicker Man  lessons
        
↑ Back to top | Tablatures and chords for acoustic guitar and electric guitar, ukulele, drums are parodies/interpretations of the original songs. You may use it for private study, scholarship, research or language learning purposes only