» » »

Iron Maiden - Run To The Hills Tabs

Artists:  A B C D E F G H I J K L M N O P Q R S T U V W X Y Z # 

Run To The Hills Tabs

(ver. 6) Click to play this song!
Iron Maiden
 Rating:
4.4/5 (8 votes)

 Run To The Hills lessons Tabs too difficult? Try these video lessons and learn fast
 
                [Drum Intro]
e|-------|-------|-------|-------|
B|-------|-------|-------|-------|
G|-------|-------|-------|-------|
D|-------|-------|-------|-------|
A|-------|-------|-------|-------|
E|-------|-------|-------|-------|

[Guitar Intro] [Repeat 4 times, on the fifth iteration the 'End of Guitar Intro' replaces the last bar]
e|--12-------12------10~---------------------------------|
B|--15b------15b-----13b~--------------------------------|
G|-------------------------------------------------------|
D|-------------------------------------------------------|
A|-------------------------------------------------------|
E|-------------------------------------------------------|


e|--10-------10-------12~--------------------------------|
B|--13b------13b------15b~-------------------------------|
G|-------------------------------------------------------|
D|-------------------------------------------------------|
A|-------------------------------------------------------|
E|-------------------------------------------------------|


e|--8--------8--------10~--------------------------------|
B|--11b------11b------13b~-------------------------------|
G|-------------------------------------------------------|
D|-------------------------------------------------------|
A|-------------------------------------------------------|
E|-------------------------------------------------------|


e|----------------------------------------------------|
B|--8--------8--------10~-----------------------------|
G|--10b------10b------12b~----------------------------|
D|----------------------------------------------------|
A|----------------------------------------------------|
E|----------------------------------------------------|

[End of Guitar Intro] [The w's represent multiple whammy dives]
                                        w  w  w  w        w  w       w
e|--------------------10---10-----------10------------------------|-(10)--|
B|--8--------8--------13b---13----------13------------------------|-(13)--|
G|--10b------10b--------------------------------------------------|-------|
D|----------------------------------------------------------------|-------|
A|----------------------------------------------------------------|-------|
E|----------------------------------------------------------------|-------|

[Sustain the 14 then slide down from it]
    W
e|--10~-----------------------||
B|--13~-----------------------||
G|-----------14L14s-----------||
D|----------------------------||
A|----------------------------||
E|----------------------------||

[Verse] [Repeat Twice; Except for the last bar palm mute all the power chords]
e|---------------------------------------------------|
B|---------------------------------------------------|
G|o--------------------------------------------------|
D|o7-----7--7--7-----7--7--7-----7--7--7-----7--7----|
A|-5-----5--5--5-----5--5--5-----5--5--5-----5--5----|
E|---------------------------------------------------|


e|----------------------------------------------------|
B|----------------------------------------------------|
G|----------------------------------------------------|
D|--7-----7--7--7-----7--7--7-----7--7--7-----7--7----|
A|--5-----5--5--5-----5--5--5-----5--5--5-----5--5----|
E|----------------------------------------------------|


e|----------------------------------------------------|
B|----------------------------------------------------|
G|----------------------------------------------------|
D|--5-----5--5--5-----5--5--5-----5--5--5-----5--5----|
A|--3-----3--3--3-----3--3--3-----3--3--3-----3--3----|
E|----------------------------------------------------|


e|----------------------------|
B|----------------------------|
G|----------------------------|
D|--5--5--5--5--5--5--5--5----|
A|--3--3--2--2--3--3--2--2----|
E|----------------------------|


[Pre-Chorus]
e|----------------------------------------------------|
B|----------------------------------------------------|
G|----------------------------------------------------|
D|--2-----------------------------------------0--5----|
A|--0-----------------------------------------0--3----|
E|----------------------------------------------------|


e|----------------------------------------------------|
B|----------------------------------------------------|
G|----------------------------------------------------|
D|--5-------------------------------------------------|
A|--3--------------------------------------------3----|
E|--------------------------------------------0--1----|


e|----------------------------------------------------|
B|----------------------------------------------------|
G|----------------------------------------------------|
D|--------------------------------------------0--7----|
A|--3-----------------------------------------0--5----|
E|--1-------------------------------------------------|

[The s represents another slide down from ther d5 chord]
e|----------------------------|----------------------------|
B|----------------------------|----------------------------|
G|----------------------------|----------------------------|
D|--7-----------------7--7----|--7-----------7--7--7s------|
A|--5-----------------5--5----|--5-----------5--5--5s------|
E|----------------------------|----------------------------|

[Chorus][Repeat Twice] [Palm Mute all power chords unless indicated otherwise]
[At the end of the second iteration, replace the last bar with the 1st bar of the solo]

e|----------------------------------------------------|
B|----------------------------------------------------|
G|----------------------------------------------------|
D|----------------------------------------------------|
A|--5-----5--5--5-----5--5--5-----5--5--5-----5--5----|
E|--3-----3--3--3-----3--3--3-----3--3--3-----3--3----|


e|----------------------------------------------------|
B|----------------------------------------------------|
G|----------------------------------------------------|
D|----------------------------------------------------|
A|--5-----5--5--5-----5--5--5-----5--5--5-----5--5----|
E|--3-----3--3--3-----3--3--3-----3--3--3-----3--3----|


e|----------------------------------------------------|
B|----------------------------------------------------|
G|----------------------------------------------------|
D|----------------------------------------------------|
A|--3-----3--3--3-----3--3--3-----3--3--3-----3--3----|
E|--1-----1--1--1-----1--1--1-----1--1--1-----1--1----|

[Do not palm mute this bar]
e|----------------------------------------------------|
B|----------------------------------------------------|
G|----------------------------------------------------|
D|----------------------------------------------------|
A|--------------3-----------------------3-------------|
E|--1-----1--1--1-----------1-----1--1--1-------------|


e|----------------------------------------------------|
B|----------------------------------------------------|
G|----------------------------------------------------|
D|--5-----5--5--5-----5--5--5-----5--5--5-----5--5----|
A|--3-----3--3--3-----3--3--3-----3--3--3-----3--3----|
E|----------------------------------------------------|


e|----------------------------------------------------|
B|----------------------------------------------------|
G|----------------------------------------------------|
D|--5-----5--5--5-----5--5--5-----5--5--5-----5--5----|
A|--3-----3--3--3-----3--3--2-----2--2--2-----2--2----|
E|----------------------------------------------------|


e|----------------------------------------------------|
B|----------------------------------------------------|
G|----------------------------------------------------|
D|----------------------------------------------------|
A|--5-----5--5--5-----5--5--5-----5--5--5-----5--5----|
E|--3-----3--3--3-----3--3--3-----3--3--3-----3--3----|


e|----------------------------|
B|----------------------------|
G|----------------------------|
D|----------------------------|
A|--5--5--2--2--3--3--4--4----|
E|--3--3--0--0--1--1--2--2----|


[Solo] {Palm mute the power chords]
e|----------------------------------------------------|
B|--------------------------------------------12------|
G|----------------------------------------------------|
D|----------------------------------------------------|
A|--5-----5--5--5-----5--5--5-----5--5--5-------------|
E|--3-----3--3--3-----3--3--3-----3--3--3-------------|


e|----------------------------|
B|--15----------------15------|
G|----------------------------|
D|----------------------------|
A|----------------------------|
E|----------------------------|


e|--------------------------------------------------------------------------12----|
B|--(15)~-------------------------------------------------------------------------|
G|--------------------------------------------------------------------------------|
D|--------------------------------------------------------------------------------|
A|--------------------------------------------------------------------------------|
E|--------------------------------------------------------------------------------|


e|------------------------------12----------------------12------------------------|
B|---------------------12---------------------------------------------------------|
G|------------12----------------------------14------------------------------------|
D|--------------------------------------------------------------------------------|
A|--------------------------------------------------------------------------------|
E|--------------------------------------------------------------------------------|


e|----------------------12--------------------------------------------------------|
B|----15b---------------------------------15----------------12h---------------15h-|
G|--------------------------------------------------------------------------------|
D|--------------------------------------------------------------------------------|
A|--------------------------------------------------------------------------------|
E|--------------------------------------------------------------------------------|


e|----------------------------------------------------|
B|--------------12------------------------------------|
G|--------------------------------14------------------|
D|----------------------------------------------------|
A|----------------------------------------------------|
E|----------------------------------------------------|


e|----------------------------------------------------|
B|--12------------------------------------------------|
G|-----14L---------------------14h12h14h12----12------|
D|----------------------------------------------------|
A|----------------------------------------------------|
E|----------------------------------------------------|


e|----------------------------------------|
B|----------------------------------------|
G|----------------------------------------|
D|--14~---------------14-------------12---|
A|-----------------------------12h14------|
E|----------------------------------------|


e|--------------------------------------------------------------------------------|
B|--------------------------------------------------------------12h---14h---12----|
G|--------------------------12h---14h---12----12----------14----------------------|
D|--14h---12----------12h14-------------------------------------------------------|
A|--------------12h14-------------------------------------------------------------|
E|--------------------------------------------------------------------------------|


e|--------------------|
B|12h---15h---12h-----|
G|--------------------|
D|--------------------|
A|--------------------|
E|--------------------|


e|--------------------------------------------------------------------------------|
B|--15h---12-------12h15L---15s---------------------------15h---17h---15----15h---|
G|--------------14----------------7h----------------16----------------------------|
D|--------------------------------------------------------------------------------|
A|--------------------------------------------------------------------------------|
E|--------------------------------------------------------------------------------|


e|--------------------|----------------------------------------------------|
B|17h---15h---17------|--------17h15h17h15-15h17h15----15-17-17------------|
G|--------------------|--16-------------------------16---------------------|
D|--------------------|----------------------------------------------------|
A|--------------------|----------------------------------------------------|
E|--------------------|----------------------------------------------------|


e|----------------------------|
B|---------------(17)~5s-15---|
G|----------------------------|
D|----------------------------|
A|----------------------------|
E|----------------------------|


e|--12h---15h---12h---15h------12h------15h------12-------12h---15h---12----------|
B|--------------------------------------------------------------------------15h---|
G|--------------------------------------------------------------------------------|
D|--------------------------------------------------------------------------------|
A|--------------------------------------------------------------------------------|
E|--------------------------------------------------------------------------------|


e|--------------------------------------------------------------------|
B|---12h------15h---12h---15h---12h------15h------12------------------|
G|---------------------------------------------------------12h--------|
D|--------------------------------------------------------------------|
A|--------------------------------------------------------------------|
E|--------------------------------------------------------------------|


e|--------------------------------------------------------------------------------|
B|--------------------------------------------------------------------------------|
G|--14h------12h------14h------12h------14h------12h------14h------12-------------|
D|--------------------------------------------------------------------------14h---|
A|--------------------------------------------------------------------------------|
E|--------------------------------------------------------------------------------|


e|--------------------------------------------------------------------|
B|--------------------------------------------------------------------|
G|------------------------------12----------------14------------------|
D|12h---14h---12------------------------------------------------------|
A|--------------------------------------------------------------------|
E|--------------------------------------------------------------------|


e|----------------------------------------------------------------------------|
B|--------15----------------15------------------------------------------------|
G|-(14)---14----------14----------14b---14----------------14-------12---------|
D|----------------------------------------------------------------------------|
A|----------------------------------------------------------------------------|
E|----------------------------------------------------------------------------|


e|-----------------------17---|--(17)~---------------------|
B|----------------------------|-----------15L15~---17L-----|
G|--------------------12~-----|----------------------------|
D|----------------------------|----------------------------|
A|----------------------------|----------------------------|
E|----------------------------|----------------------------|


e|-----------------------0----|-(0)-12-15------------------------------|
B|--17~---------------0-------|----------------------------------------|
G|-----14-------16------------|----------------------------------------|
D|----------------------------|----------------------------------------|
A|----------------------------|----------------------------------------|
E|----------------------------|----------------------------------------|

     W             Interulude [Mute the open A's]
e|--15------------|----------------------------|----------------------------|
B|-----------13s--|----------------------------|----------------------------|
G|----------------|--9--------9--------9-------|--11-------11-------11------|
D|----------------|--7--------7--------7-------|--9--------9--------9-------|
A|----------------|-----0--0-----0--0-----0----|-----0--0-----0--0-----0----|
E|----------------|----------------------------|----------------------------|


e|----------------------------|----------------------------|
B|----------------------------|----------------------------|
G|--12-------12-------12------|--14-------14L14~---14s-----|
D|--10-------10-------10------|--12-------12L12~---12s-----|
A|-----0--0-----0--0-----0----|-----0--0-------------------|
E|----------------------------|----------------------------|


e|----------------------------|----------------------------|
B|----------------------------|----------------------------|
G|--9--------9--------9-------|--11-------11-------11------|
D|--7--------7--------7-------|--9--------9--------9-------|
A|-----0--0-----0--0-----0----|-----0--0-----0--0-----0----|
E|----------------------------|----------------------------|


e|----------------------------|----------------------------|
B|----------------------------|----------------------------|
G|--12-------12-------12------|--14-------14L14~---14s-----|
D|--10-------10-------10------|--12-------12L12~---12s-----|
A|-----0--0-----0--0-----0----|-----0--0-------------------|
E|----------------------------|----------------------------|


e|----------------------------|----------------------------|
B|----------------------------|----------------------------|
G|--9--------9--------9-------|--11-------11-------11------|
D|--7--------7--------7-------|--9--------9--------9-------|
A|-----0--0-----0--0-----0----|-----0--0-----0--0-----0----|
E|----------------------------|----------------------------|


e|----------------------------|----------------------------|
B|----------------------------|----------------------------|
G|--12-------12-------12------|--14----14-14-14-14-14s-----|
D|--10-------10-------10------|--12----12-12-12-12-12s-----|
A|-----0--0-----0--0-----0----|----------------------------|
E|----------------------------|----------------------------|

[Repeat Chorus Until Outro; The outro takes over on the second bar of the chorus]

e|----------------------------------------------------|
B|----------------------------------------------------|
G|----------------------------------------------------|
D|----------------------------------------------------|
A|--5-----5--5--5-----5--5--5-----5--5--5-----5--5----|
E|--3-----3--3--3-----3--3--3-----3--3--3-----3--3----|


e|----------------------------------------------------|
B|----------------------------------------------------|
G|----------------------------------------------------|
D|----------------------------------------------------|
A|--5-----5--5--5-----5--5--5-----5--5--5-----5--5----|
E|--3-----3--3--3-----3--3--3-----3--3--3-----3--3----|


e|----------------------------------------------------|
B|----------------------------------------------------|
G|----------------------------------------------------|
D|----------------------------------------------------|
A|--3-----3--3--3-----3--3--3-----3--3--3-----3--3----|
E|--1-----1--1--1-----1--1--1-----1--1--1-----1--1----|

[Do not palm mute this bar]
e|----------------------------------------------------|
B|----------------------------------------------------|
G|----------------------------------------------------|
D|----------------------------------------------------|
A|--------------3-----------------------3-------------|
E|--1-----1--1--1-----------1-----1--1--1-------------|


e|----------------------------------------------------|
B|----------------------------------------------------|
G|----------------------------------------------------|
D|--5-----5--5--5-----5--5--5-----5--5--5-----5--5----|
A|--3-----3--3--3-----3--3--3-----3--3--3-----3--3----|
E|----------------------------------------------------|


e|----------------------------------------------------|
B|----------------------------------------------------|
G|----------------------------------------------------|
D|--5-----5--5--5-----5--5--5-----5--5--5-----5--5----|
A|--3-----3--3--3-----3--3--2-----2--2--2-----2--2----|
E|----------------------------------------------------|

[Outro]
e|----------------------------------------------------|-------|------------|-------|
B|----------------------------------------------------|-------|------------|--3----|
G|----------------------------------------------------|-------|------------|--0----|
D|----------------------------------------------------|--5----|--(5)--5----|--0----|
A|--------------3-----------------------3-------------|--3----|--(3)--2----|--x----|
E|--1-----1--1--1-----------1-----1--1--1-------------|-------|------------|--3----|


e|--------|--------|----------------------------|--------|--------|--------|
B|--(3)---|--(3)---|--(3)-----------------3-----|--(3)---|--(3)---|--(3)---|
G|--(0)---|--(0)---|--(0)-----------------0-----|--(0)---|--(0)---|--(0)---|
D|--(0)---|--(0)---|--(0)-----------------0-----|--(0)---|--(0)---|--(0)---|
A|--(x)---|--(x)---|--(x)-----------------x-----|--(x)---|--(x)---|--(x)---|
E|--(3)---|--(3)---|--(3)-----------------3-----|--(3)---|--(3)---|--(3)---|


e|---------------|----||
B|--3-------3----|----||
G|--0-------0----|----||
D|--0-------0----|----||
A|--x-------x----|----||
E|--3-------3----|----||            
Submit corrections


        Run To The Hills lessons Hard to play? Try these video lessons and learn fast Run To The Hills lessons
        
↑ Back to top | Tablatures and chords for acoustic guitar and electric guitar, ukulele, drums are parodies/interpretations of the original songs. You may use it for private study, scholarship, research or language learning purposes only