Home » I » Iron Maiden »

Iron Maiden - Run To The Hills Bass

Artists:  A B C D E F G H I J K L M N O P Q R S T U V W X Y Z # 

Run To The Hills Bass

(ver. 1) Click to play this song!
Iron Maiden
 Rating:
4.4/5 (7 votes)
                
Intro/Verse (on the very last time, play the last note in the brackets instead)
||---.-----.-------------------------.-----.--------------------------|
||-o-14----14----12------------------12----12----12h14----------------|
||-o------------------------------------------------------------------|
||--------------------------------------------------------------------|

|-.-----.-------------------------.-----.----------------------------||
|-10----10----10h12---------------5-----5-----5-h-7----------------o-||
|--------------------------------------------(5)-------------------o-|| 5x
|--------------------------------------------------------------------||


Pre-Verse
|------------------------------------------------------------------|
|-.-------.-------.-------.-------.-------.-------.-------.--------|
|-5---5-5-5---5-5-5---5-5-5---5-5-5---5-5-5---5-5-5---5-5-5---5-5--|
|------------------------------------------------------------------|


Verse
|------------------------------------------------------------------|
|-.-------.-------.-------.-------.-------.-------.----------------|
|-5---5-5-5---5-5-5---5-5-5---5-5-5---5-5-5---5-5-5-------5---0----|
|------------------------------------------------------------------|

|------------------------------------------------------------------|
|-.-------.-------.-------.----------------------------------------|
|-3---3-3-3---3-3-3---3-3-3---3-3-3---3---2---2---3---3---2---2----|
|------------------------------------------------------------------|

|------------------------------------------------------------------|
|-.-------.-------.-------.-------.-------.-------.----------------|
|-5---5-5-5---5-5-5---5-5-5---5-5-5---5-5-5---5-5-5---5-5-5---0----|
|------------------------------------------------------------------|

|------------------------------------------------------------------|
|-.-------.-------.-------.----------------------------------------|
|-3---3-3-3---3-3-3---3-3-3---3-3-3---3---2---2---3---3---2---2----|
|------------------------------------------------------------------|


Pre-Chorus
|------------------------------------------------------------------|
|---------------------------------.-------.-------.----------------|
|-.-------.-------.---------------3---3-3-3---3-3-3---3-3-3--------|
|-5---5-5-5---5-5-5---5-5-5---0-------------------------------0----|

|------------------------------------------------------------------|
|---------------------------------.-------.-------.-------.--------|
|-.-------.-------.---------------5---5-5-5---5-5-5---5-5-5---5-5--|
|-1---1-1-1---1-1-1---1-1-1---0------------------------------------|

|--------------------------------|
|--------------------------------|
|-5---5---5---5---5---3---5-\----|
|--------------------------------|


Chorus
|------------------------------------------------------------------|
|------------------------------------------------------------------|
|-.-------.-------.-------.-------.-------.-------.----------------|
|-3---3-3-3---3-3-3---3-3-3---3-3-3---3-3-3---3-3-3---3-3-3---0----|

|------------------------------------------------------------------|
|------------------------------------------------------------------|
|-.-------.-------.-------.-------.-------.-------.----------------|
|-1---1-1-1---1-1-1---1-1-1---1-1-1---1-1-1---1-1-1---1-1-1---0----|

|------------------------------------------------------------------|
|-.-------.-------.-------.-------.-------.-------.----------------|
|-3---3-3-3---3-3-3---3-3-3---3-3-3---3-3-3---3-3-3---3-3-3--------|
|-------------------------------------------------------------0----|

|------------------------------------------------------------------|
|------------------------------------------------------------------|
|-.-------.-------.-------.----------------------------------------|
|-3---3-3-3---3-3-3---3-3-3---3-3-3---0---0---0---1---1---2---2----|

|------------------------------------------------------------------|
|------------------------------------------------------------------|
|-.-------.-------.-------.-------.-------.-------.----------------|
|-3---3-3-3---3-3-3---3-3-3---3-3-3---3-3-3---3-3-3---3-3-3---0----|

|------------------------------------------------------------------|
|------------------------------------------------------------------|
|-.-------.-------.-------.-------.-------.-------.----------------|
|-1---1-1-1---1-1-1---1-1-1---1-1-1---1-1-1---1-1-1---1-1-1---0----|

|------------------------------------------------------------------|
|-.-------.-------.-------.-------.-------.-------.----------------|
|-3---3-3-3---3-3-3---3-3-3---3-3-3---3-3-3---3-3-3---3-3-3--------|
|-------------------------------------------------------------0----|

|------------------------------------------------------------------|
|------------------------------------------------------------------|
|-.-------.-------.-------.-------.-------.-------.----------------|
|-3---3-3-3---3-3-3---3-3-3---3-3-3---3-3-3---3-3-3---3-3-3---0----|


Verse 2
||--------------------------------------------------------------------|
||-o-.-------.-------.-------.-------.-------.-------.----------------|
||-o-5---5-5-5---5-5-5---5-5-5---5-5-5---5-5-5---5-5-5---5-5-5---0----|
||--------------------------------------------------------------------|

|--------------------------------------------------------------------||
|-.-------.-------.-------.----------------------------------------o-||
|-3---3-3-3---3-3-3---3-3-3---3-3-3---3---2---2---3---3---2---2----o-||
|--------------------------------------------------------------------||


Pre-Chorus
|------------------------------------------------------------------|
|---------------------------------.-------.-------.----------------|
|-.-------.-------.---------------3---3-3-3---3-3-3---3-3-3--------|
|-5---5-5-5---5-5-5---5-5-5---0-------------------------------0----|

|------------------------------------------------------------------|
|---------------------------------.-------.-------.-------.--------|
|-.-------.-------.---------------5---5-5-5---5-5-5---5-5-5---5-5--|
|-1---1-1-1---1-1-1---1-1-1---0------------------------------------|

|--------------------------------|
|--------------------------------|
|-5-5-5-5-5-5-5-5-5---3---5-\----|
|--------------------------------|


Chorus


Guitar Solo
||-----------------------------------.-------.------------------------|
||-o-.-------.-------.-------.---4---5---5-5-5---5-5-5-5-5-5-5--------|
||-o-7---7-7-7---7-7-7---7-7-7-----------------------------------5----|
||--------------------------------------------------------------------|

|--------------------------------------------------------------------||
|-.-------.-------.------------------------------------------------o-||
|-3---3-3-3---3-3-3---3-3-3---2---3---2---3---2---3---2------------o-|| 4X
|---------------------------------------------------------3---2------||


Bass Solo (this part is just insane)
||---.-------------------------------.--------------------------------|
||-o-7---7-7-7-7-9-9-7-7-7-7-9-9-7---5---5-5-5-5-7-7-5-5-5-5-7-7-5----|
||-o------------------------------------------------------------------|
||--------------------------------------------------------------------|

|-.-------------------------------.----------------------------------||
|-10--1010101012121010101012--10--12--1212121214141212121214--12---o-||
|------------------------------------------------------------------o-|| 3X
|--------------------------------------------------------------------||
                                  .
|-.-------------------------------11--11111111121211111111121211---|
|-14--1414141416161414141416--14-----------------------------------|
|------------------------------------------------------------------|
|------------------------------------------------------------------|
  .                        
|-12--1212121214141212121214--12--1616161616161616-----------------|
|-------------------------------------------------16--14-----------|
|---------------------------------------------------------14-\-----|
|------------------------------------------------------------------|


Chorus 3
||--------------------------------------------------------------------|
||-o------------------------------------------------------------------|
||-o-.-------.-------.-------.-------.-------.-------.----------------|
||---3---3-3-3---3-3-3---3-3-3---3-3-3---3-3-3---3-3-3---3-3-3---0----|

|------------------------------------------------------------------|
|------------------------------------------------------------------|
|-.-------.-------.-------.-------.---------------.----------------|
|-1---1-1-1---1-1-1---1-1-1---1-1-1---1-1-1-------1---1-1-1--------|

|------------------------------------------------------------------|
|-.-------.-------.-------.-------.-------.-------.----------------|
|-3---3-3-3---3-3-3---3-3-3---3-3-3---3-3-3---3-3-3---3-3-3--------|
|-------------------------------------------------------------0----|

|--------------------------------------------------------------------||
|------------------------------------------------------------------o-||
|-.-------.-------.-------.----------------------------------------o-|| 3X
|-3---3-3-3---3-3-3---3-3-3---3-3-3---0---0---0---1---1---2---2------||

|------------------------------------------------------------------|
|------------------------------------------------------------------|
|-.-------.-------.-------.-------.-------.-------.----------------|
|-3---3-3-3---3-3-3---3-3-3---3-3-3---3-3-3---3-3-3---3-3-3---0----|

|------------------------------------------------------------------|
|------------------------------------------------------------------|
|-.-------.-------.-------.-------.---------------.----------------|
|-1---1-1-1---1-1-1---1-1-1---1-1-1---1-1-1-------1---1-1-1---0----|


Outro
|------------------------------------------------------------------|
|------------------------------------------------------------------|
|-3-------------------------------2--------------------------------|
|-------------------------------------------------3----------------|

|------------------------------------------------------------------| |--------|
|-5-5-5-5-5-5-5-3---5-3---5-3--------------------------------------| |--------|
|-----------------5-----5-----5-4-3-1------------------------------| |--------|
|-------------------------------------3-2-1-0-1-2-3-3-3-3-3-3??----| |-3---\--|            
Submit corrections

↑ Back to top | Tablatures and chords for acoustic guitar and electric guitar, ukulele, drums are parodies/interpretations of the original songs. You may use it for private study, scholarship, research or language learning purposes only