Home » I » Iron Maiden »

Iron Maiden - Running Free Bass

Artists:  A B C D E F G H I J K L M N O P Q R S T U V W X Y Z # 

Running Free Bass

(ver. 3) Click to play this song!
Iron Maiden
 Rating:
1.9/5 (27 votes)
                          Intro                                                     
     S    W                   W                   W                 
G||----|-------------------|-------------------|-------------------|
D||----|-------------------|-------------------|-------------------|
A||----|-------------------|-------------------|-------------------|
E||----|-------------------|-------------------|-------------------|


  Bass Riff                                                   
                         |--3--|  |--3--|  |--3--|  |--3--|   
  H.            Q        E  E  E  E  E  E  E  E  E  E  E  E   
----------------------|--------------------------------------|
----------------------|--------------------------------------|
---------------10\----|--7--L--7--7--L--7--7--L--7--7--L--7--|
----------------------|--------------------------------------|


  |--3--|  |--3--|  |--3--|  |--3--|     |--3--|  |--3--|  |--3--|  |--3--|   
  E  E  E  E  E  E  E  E  E  E  E  E     E  E  E  E  E  E  E  E  E  E  E  E   
--------------------------------------|--------------------------------------|
-----------------5--L--L--5--5--L--5--|--------------------------------------|
--7--L--7--7--L-----------------------|--7--L--7--7--L--7--7--L--7--7--L--7--|
--------------------------------------|--------------------------------------|


  |--3--|  |--3--|  |--3--|  |--3--|     |--3--|  |--3--|  |--3--|  |--3--|   
  E  E  E  E  E  E  E  E  E  E  E  E     E  E  E  E  E  E  E  E  E  E  E  E   
--------------------------------------|--------------------------------------|
--------------------------------------|--------------------------------------|
--3--L--3--3--L--3--5--L--5--5--L--3--|--7--L--7--7--L--7--7--L--7--7--L--7--|
--------------------------------------|--------------------------------------|


  |--3--|  |--3--|  |--3--|  |--3--|     |--3--|  |--3--|  |--3--|  |--3--|   
  E  E  E  E  E  E  E  E  E  E  E  E     E  E  E  E  E  E  E  E  E  E  E  E   
--------------------------------------|--------------------------------------|
-----------------5--L--L--5--5--L--5--|--------------------------------------|
--7--L--7--7--L-----------------------|--7--L--7--7--L--7--7--L--7--7--L--7--|
--------------------------------------|--------------------------------------|


  |--3--|  |--3--|  |--3--|  |--3--|   
  E  E  E  E  E  E  E  E  E  E  E  E   
-----------5--L--L-----------7--L--L--|
--------5-----------------7-----------|
--3--3--------------5--5--------------|
--------------------------------------|


  Riff A                                   
  |----3----|  |--3--|  |--3--|  |--3--|   
  E      E  E  E  E  E  E  E  E  E  E  E   
------------------------------------------|
------------------------------------------|
--7------L--7--7--L--7--7--L--7--7--L--7--|
------------------------------------------|


  |--3--|  |--3--|  |--3--|  |--3--|     |--3--|  |--3--|  |--3--|  |--3--|   
  E  E  E  E  E  E  E  E  E  E  E  E     E  E  E  E  E  E  E  E  E  E  E  E   
--------------------------------------|--------------------------------------|
-----------------5--L--L--5--5--L--5--|--------------------------------------|
--7--L--7--7--L-----------------------|--7--L--7--7--L--7--7--L--7--7--L--7--|
--------------------------------------|--------------------------------------|


  |--3--|  |--3--|  |--3--|  |--3--|     |--3--|  |--3--|  |--3--|  |--3--|   
  E  E  E  E  E  E  E  E  E  E  E  E     E  E  E  E  E  E  E  E  E  E  E  E   
--------------------------------------|--------------------------------------|
--------------------------------------|--------------------------------------|
--3--L--3--3--L--3--5--L--5--5--L--3--|--7--L--7--7--L--7--7--L--7--7--L--7--|
--------------------------------------|--------------------------------------|


  |--3--|  |--3--|  |--3--|  |--3--|     |--3--|  |--3--|  |--3--|  |--3--|   
  E  E  E  E  E  E  E  E  E  E  E  E     E  E  E  E  E  E  E  E  E  E  E  E   
--------------------------------------|--------------------------------------|
-----------------5--L--L--5--5--L--5--|--------------------------------------|
--7--L--7--7--L-----------------------|--7--L--7--7--L--7--7--L--7--7--L--7--|
--------------------------------------|--------------------------------------|


  |--3--|  |--3--|  |--3--|  |--3--|   
  E  E  E  E  E  E  E  E  E  E  E  E   
-----------5--L--L-----------7--L--L--|
--------5-----------------7-----------|
--3--3--------------5--5--------------|
--------------------------------------|


  Verso Riff                                   
  |------3------|  |--3--|  |--3--|  |--3--|   
  E          E  E  E  E  E  E  E  E  E  E  E   
----------------------------------------------|
----------------------------------------------|
--7----------L--7--7--L--7--7--L--7--7--L--7--|
----------------------------------------------|


  |--3--|  |--3--|  |--3--|  |--3--|     |--3--|  |--3--|  |--3--|  |--3--|   
  E  E  E  E  E  E  E  E  E  E  E  E     E  E  E  E  E  E  E  E  E  E  E  E   
--------------------------------------|--------------------------------------|
--------------------------------------|--------------------------------------|
--3--L--3--3--L--3--5--L--5--5--L--5--|--7--L--7--7--L--7--7--L--7--7--L--7--|
--------------------------------------|--------------------------------------|


  |--3--|  |--3--|  |--3--|  |--3--|     |--3--|  |--3--|  |--3--|  |--3--|   
  E  E  E  E  E  E  E  E  E  E  E  E     E  E  E  E  E  E  E  E  E  E  E  E   
--------------------------------------|--------------------------------------|
--------------------------------------|--------------------------------------|
--------------------------------------|--7--L--7--7--L--7--7--L--7--7--L--7--|
--3--L--3--3--L--3--5--L--5--5--L--5--|--------------------------------------|


  |--3--|  |--3--|  |--3--|  |--3--|     |--3--|  |--3--|  |--3--|  |--3--|   
  E  E  E  E  E  E  E  E  E  E  E  E     E  E  E  E  E  E  E  E  E  E  E  E   
--------------------------------------|--------------------------------------|
--------------------------------------|--------------------------------------|
--3--L--3--3--L--3--5--L--5--5--L--5--|--7--L--7--7--L--7--7--L--7--7--L--7--|
--------------------------------------|--------------------------------------|


  |--3--|  |--3--|  |--3--|  |--3--|   
  E  E  E  E  E  E  E  E  E  E  E  E   
--------------------------------------|
--------------------------------------|
--------------------------------------|
--3--L--3--3--L--3--5--L--5--5--L--5--|


  Coro A                                   
  |----3----|  |--3--|  |--3--|  |--3--|   
  E      E  E  E  E  E  E  E  E  E  E  E   
------------------------------------------|
------------------------------------------|
--7------L--7--7--L--7--7--L--7--7--L--7--|
------------------------------------------|


  |--3--|  |--3--|  |--3--|  |--3--|     |--3--|  |--3--|  |--3--|  |--3--|   
  E  E  E  E  E  E  E  E  E  E  E  E     E  E  E  E  E  E  E  E  E  E  E  E   
--------------------------------------|--------------------------------------|
--5--L--5--5--L-----------------------|--------------------------------------|
-----------------7--5--L--5--5--L--7--|--7--L--7--7--L--7--7--L--7--7--L--7--|
--------------------------------------|--------------------------------------|


  |--3--|  |--3--|  |--3--|  |--3--|     |--3--|  |--3--|  |--3--|  |--3--|   
  E  E  E  E  E  E  E  E  E  E  E  E     E  E  E  E  E  E  E  E  E  E  E  E   
--------------------------------------|--------------------------------------|
--------------------------------------|--------------------------------------|
--3--L--3--3--L--3--5--L--5--5--L--5--|--7--L--7--7--L--7--7--L--7--7--L--7--|
--------------------------------------|--------------------------------------|


  |--3--|  |--3--|  |--3--|  |--3--|     |--3--|  |--3--|  |--3--|  |--3--|   
  E  E  E  E  E  E  E  E  E  E  E  E     E  E  E  E  E  E  E  E  E  E  E  E   
--------------------------------------|--------------------------------------|
--5--L--5--5--L-----------------------|--------------------------------------|
-----------------7--5--L--5--5--L--7--|--7--L--7--7--L--7--7--L--7--7--L--7--|
--------------------------------------|--------------------------------------|


  |--3--|  |--3--|  |--3--|  |--3--|   
  E  E  E  E  E  E  E  E  E  E  E  E   
--------------------------------------|
--------------------------------------|
--3--L--3--3--L--3--5--L--5--5--L--5--|
--------------------------------------|


  Verso Riff                                   
  |------3------|  |--3--|  |--3--|  |--3--|   
  E          E  E  E  E  E  E  E  E  E  E  E   
----------------------------------------------|
----------------------------------------------|
--7----------L--7--7--L--7--7--L--7--7--L--7--|
----------------------------------------------|


  |--3--|  |--3--|  |--3--|  |--3--|     |--3--|  |--3--|  |--3--|  |--3--|   
  E  E  E  E  E  E  E  E  E  E  E  E     E  E  E  E  E  E  E  E  E  E  E  E   
--------------------------------------|--------------------------------------|
--------------------------------------|--------------------------------------|
--3--L--3--3--L--3--5--L--5--5--L--5--|--7--L--7--7--L--7--7--L--7--7--L--7--|
--------------------------------------|--------------------------------------|


  |--3--|  |--3--|  |--3--|  |--3--|     |--3--|  |--3--|  |--3--|  |--3--|   
  E  E  E  E  E  E  E  E  E  E  E  E     E  E  E  E  E  E  E  E  E  E  E  E   
--------------------------------------|--------------------------------------|
--------------------------------------|--------------------------------------|
--------------------------------------|--7--L--7--7--L--7--7--L--7--7--L--7--|
--3--L--3--3--L--3--5--L--5--5--L--5--|--------------------------------------|


  |--3--|  |--3--|  |--3--|  |--3--|     |--3--|  |--3--|  |--3--|  |--3--|   
  E  E  E  E  E  E  E  E  E  E  E  E     E  E  E  E  E  E  E  E  E  E  E  E   
--------------------------------------|--------------------------------------|
--------------------------------------|--------------------------------------|
--3--L--3--3--L--3--5--L--5--5--L--5--|--7--L--7--7--L--7--7--L--7--7--L--7--|
--------------------------------------|--------------------------------------|


  |--3--|  |--3--|  |--3--|  |--3--|   
  E  E  E  E  E  E  E  E  E  E  E  E   
--------------------------------------|
--------------------------------------|
--------------------------------------|
--3--L--3--3--L--3--5--L--5--5--L--5--|


  Coro A                                   
  |----3----|  |--3--|  |--3--|  |--3--|   
  E      E  E  E  E  E  E  E  E  E  E  E   
------------------------------------------|
------------------------------------------|
--7------L--7--7--L--7--7--L--7--7--L--7--|
------------------------------------------|


  |--3--|  |--3--|  |--3--|  |--3--|     |--3--|  |--3--|  |--3--|  |--3--|   
  E  E  E  E  E  E  E  E  E  E  E  E     E  E  E  E  E  E  E  E  E  E  E  E   
--------------------------------------|--------------------------------------|
--5--L--5--5--L-----------------------|--------------------------------------|
-----------------7--5--L--5--5--L--7--|--7--L--7--7--L--7--7--L--7--7--L--7--|
--------------------------------------|--------------------------------------|


  |--3--|  |--3--|  |--3--|  |--3--|     |--3--|  |--3--|  |--3--|  |--3--|   
  E  E  E  E  E  E  E  E  E  E  E  E     E  E  E  E  E  E  E  E  E  E  E  E   
--------------------------------------|--------------------------------------|
--------------------------------------|--------------------------------------|
--3--L--3--3--L--3--5--L--5--5--L--5--|--7--L--7--7--L--7--7--L--7--7--L--7--|
--------------------------------------|--------------------------------------|


  |--3--|  |--3--|  |--3--|  |--3--|     |--3--|  |--3--|  |--3--|  |--3--|   
  E  E  E  E  E  E  E  E  E  E  E  E     E  E  E  E  E  E  E  E  E  E  E  E   
--------------------------------------|--------------------------------------|
--5--L--5--5--L-----------------------|--------------------------------------|
-----------------7--5--L--5--5--L--7--|--7--L--7--7--L--7--7--L--7--7--L--7--|
--------------------------------------|--------------------------------------|


  |--3--|  |--3--|  |--3--|  |--3--|   
  E  E  E  E  E  E  E  E  E  E  E  E   
--------------------------------------|
--------------------------------------|
--3--L--3--3--L--3--5--L--5--5--L--5--|
--------------------------------------|


  Interludio                                   
  |------3------|  |--3--|  |--3--|  |--3--|   
  E          E  E  E  E  E  E  E  E  E  E  E   
----------------------------------------------|
----------------------------------------------|
--7----------L--7--7--L--7--7--L--7--7--L--7--|
----------------------------------------------|


  |--3--|  |--3--|  |--3--|  |--3--|     |--3--|  |--3--|  |--3--|  |--3--|   
  E  E  E  E  E  E  E  E  E  E  E  E     E  E  E  E  E  E  E  E  E  E  E  E   
--------------------------------------|--------------------------------------|
-----------------5--L--L--5--5--L--5--|--------------------------------------|
--7--L--7--7--L-----------------------|--7--L--7--7--L--7--7--L--7--7--L--7--|
--------------------------------------|--------------------------------------|


  |--3--|  |--3--|  |--3--|  |--3--|     |--3--|  |--3--|  |--3--|  |--3--|   
  E  E  E  E  E  E  E  E  E  E  E  E     E  E  E  E  E  E  E  E  E  E  E  E   
--------------------------------------|--------------------------------------|
--------------------------------------|--------------------------------------|
--3--L--3--3--L--3--5--L--5--5--L--3--|--7--L--7--7--L--7--7--L--7--7--L--7--|
--------------------------------------|--------------------------------------|


  |--3--|  |--3--|  |--3--|  |--3--|     |--3--|  |--3--|  |--3--|  |--3--|   
  E  E  E  E  E  E  E  E  E  E  E  E     E  E  E  E  E  E  E  E  E  E  E  E   
--------------------------------------|--------------------------------------|
-----------------5--L--L--5--5--L--5--|--------------------------------------|
--7--L--7--7--L-----------------------|--7--L--7--7--L--7--7--L--7--7--L--7--|
--------------------------------------|--------------------------------------|


  |--3--|  |--3--|  |--3--|  |--3--|     |--3--|  |--3--|  |--3--|  |--3--|   
  E  E  E  E  E  E  E  E  E  E  E  E     E  E  E  E  E  E  E  E  E  E  E  E   
--------------------------------------|--------------------------------------|
--------------------------------------|--------------------------------------|
--3--L--3--3--L--3--5--L--5--5--L--3--|--7--L--7--7--L--7--7--L--7--7--L--7--|
--------------------------------------|--------------------------------------|


  |--3--|  |--3--|  |--3--|  |--3--|   
  E  E  E  E  E  E  E  E  E  E  E  E   
--------------------------------------|
--------------------------------------|
--3--L--3--3--L--3--5--L--5--5--L--3--|
--------------------------------------|


    Riff B                                   
    |----3----|  |--3--|  |--3--|  |--3--|   
    E      E  E  E  E  E  E  E  E  E  E  E   
|-------------------------------------------|
|*------------------------------------------|
|*--7------L--7--7--L--7--7--L--7--7--L--7--|
|-------------------------------------------|


  |--3--|  |--3--|  |--3--|  |--3--|     |--3--|  |--3--|  |--3--|  |--3--|   
  E  E  E  E  E  E  E  E  E  E  E  E     E  E  E  E  E  E  E  E  E  E  E  E   
--------------------------------------|--------------------------------------|
--------------------------------------|--------------------------------------|
--7--L--7--7--L--7--7--L--7--7--L--7--|--7--L--7--7--L--7--7--L--7--7--L--7--|
--------------------------------------|--------------------------------------|


  |--3--|  |--3--|  |--3--|             |--3--|  |--3--|  |--3--|  |--3--|   
  E  E  E  E  E  E  E  E  E   Q     3x  E  E  E  E  E  E  E  E  E  E  E  E   
--9--9--9--7--7--7-----------12-----||--------------------------------------|
--------------------9--9--9--------*||--------------------------------------|
-----------------------------------*||--7--L--7--7--L--7--7--L--7--7--L--7--|
------------------------------------||--------------------------------------|


  |--3--|  |--3--|  |--3--|  |--3--|     |--3--|  |--3--|  |--3--|  |--3--|   
  E  E  E  E  E  E  E  E  E  E  E  E     E  E  E  E  E  E  E  E  E  E  E  E   
--------------------------------------|--------------------------------------|
--------------------------------------|--------------------------------------|
--7--L--7--7--L--7--7--L--7--7--L--7--|--7--L--7--7--L--7--7--L--7--7--L--7--|
--------------------------------------|--------------------------------------|


                                  Coro A                                   
  |--3--|  3  3             3     |----3----|  |--3--|  |--3--|  |--3--|   
  E  E  E  E  E  E.  S Q    E     E      E  E  E  E  E  E  E  E  E  E  E   
-------------------------------|------------------------------------------|
-------------------------------|------------------------------------------|
--7--L--7--7--L--3-----5-------|--7------L--7--7--L--7--7--L--7--7--L--7--|
-------------------------------|------------------------------------------|


  |--3--|  |--3--|  |--3--|  |--3--|     |--3--|  |--3--|  |--3--|  |--3--|   
  E  E  E  E  E  E  E  E  E  E  E  E     E  E  E  E  E  E  E  E  E  E  E  E   
--------------------------------------|--------------------------------------|
--5--L--5--5--L-----------------------|--------------------------------------|
-----------------7--5--L--5--5--L--7--|--7--L--7--7--L--7--7--L--7--7--L--7--|
--------------------------------------|--------------------------------------|


  |--3--|  |--3--|  |--3--|  |--3--|     |--3--|  |--3--|  |--3--|  |--3--|   
  E  E  E  E  E  E  E  E  E  E  E  E     E  E  E  E  E  E  E  E  E  E  E  E   
--------------------------------------|--------------------------------------|
--------------------------------------|--------------------------------------|
--3--L--3--3--L--3--5--L--5--5--L--5--|--7--L--7--7--L--7--7--L--7--7--L--7--|
--------------------------------------|--------------------------------------|


  |--3--|  |--3--|  |--3--|  |--3--|     |--3--|  |--3--|  |--3--|  |--3--|   
  E  E  E  E  E  E  E  E  E  E  E  E     E  E  E  E  E  E  E  E  E  E  E  E   
--------------------------------------|--------------------------------------|
--5--L--5--5--L-----------------------|--------------------------------------|
-----------------7--5--L--5--5--L--7--|--7--L--7--7--L--7--7--L--7--7--L--7--|
--------------------------------------|--------------------------------------|


                                         Riff C                          
  |--3--|  |--3--|  |--3--|  |--3--|     |----3----|           3   |-3|  
  E  E  E  E  E  E  E  E  E  E  E  E     E      E  E  H        E.  E  S  
--------------------------------------|---------------------------------|
--------------------------------------|---------------------------------|
--3--L--3--3--L--3--5--L--5--5--L--5--|--7------L--7---------------5--L-|
--------------------------------------|---------------------------------|


  |--3--|           3   |-3|    |--3--|                
  E  E  E  H        E.  E  S    E  E  E  H.            
-----------------------------|------------------------|
-----------------------------|------------------------|
--7--L--7---------------5--L-|--7--L--7---------------|
-----------------------------|------------------------|


  |--3--|  |--3--|  |--3--|  |--3--|     |--3--|           3   |-3|  
  E  E  E  E  E  E  E  E  E  E  E  E     E  E  E  H        E.  E  S  
--------------------------------------|-----------------------------|
--------------------------------------|-----------------------------|
--3--L--3--3--L--3--5--L--5--5--L--5--|--7--L--7---------------5--L-|
--------------------------------------|-----------------------------|


  |--3--|           3   |-3|    |--3--|                
  E  E  E  H        E.  E  S    E  E  E  H.            
-----------------------------|------------------------|
-----------------------------|------------------------|
--7--L--7---------------5--L-|--7--L--7---------------|
-----------------------------|------------------------|


                                           Riff D                          
  |--3--|  |--3--|  |--3--|  |--3--|       |----3----|           3   |-3|  
  E  E  E  E  E  E  E  E  E  E  E  E       E      E  E  H        E.  E  S  
--------------------------------------||----------------------------------|
--------------------------------------||*---------------------------------|
--3--L--3--3--L--3--5--L--5--5--L--5--||*--7------L--7---------------5--L-|
--------------------------------------||----------------------------------|


  |--3--|           3   |-3|    |--3--|                
  E  E  E  H        E.  E  S    E  E  E  H.            
-----------------------------|------------------------|
-----------------------------|------------------------|
--7--L--7---------------5--L-|--7--L--7---------------|
-----------------------------|------------------------|


  |--3--|  |--3--|  |--3--|  |--3--|       |--3--|  |--3--|  |--3--|  |--3--|   
  E  E  E  E  E  E  E  E  E  E  E  E       E  E  E  E  E  E  E  E  E  E  E  E   
---------------------------------------||--------------------------------------|
--------------------------------------*||--------------------------------------|
--3--L--3--3--L--3--5--L--5--5--L--5--*||--3--L--3--3--L--3--5--L--5--5--L--5--|
---------------------------------------||--------------------------------------|


  Verso Riff                                   
  |------3------|  |--3--|  |--3--|  |--3--|   
  E          E  E  E  E  E  E  E  E  E  E  E   
----------------------------------------------|
----------------------------------------------|
--7----------L--7--7--L--7--7--L--7--7--L--7--|
----------------------------------------------|


  |--3--|  |--3--|  |--3--|  |--3--|     |--3--|  |--3--|  |--3--|  |--3--|   
  E  E  E  E  E  E  E  E  E  E  E  E     E  E  E  E  E  E  E  E  E  E  E  E   
--------------------------------------|--------------------------------------|
--------------------------------------|--------------------------------------|
--3--L--3--3--L--3--5--L--5--5--L--5--|--7--L--7--7--L--7--7--L--7--7--L--7--|
--------------------------------------|--------------------------------------|


  |--3--|  |--3--|  |--3--|  |--3--|     |--3--|  |--3--|  |--3--|  |--3--|   
  E  E  E  E  E  E  E  E  E  E  E  E     E  E  E  E  E  E  E  E  E  E  E  E   
--------------------------------------|--------------------------------------|
--------------------------------------|--------------------------------------|
--------------------------------------|--7--L--7--7--L--7--7--L--7--7--L--7--|
--3--L--3--3--L--3--5--L--5--5--L--5--|--------------------------------------|


  |--3--|  |--3--|  |--3--|  |--3--|     |--3--|  |--3--|  |--3--|  |--3--|   
  E  E  E  E  E  E  E  E  E  E  E  E     E  E  E  E  E  E  E  E  E  E  E  E   
--------------------------------------|--------------------------------------|
--------------------------------------|--------------------------------------|
--3--L--3--3--L--3--5--L--5--5--L--5--|--7--L--7--7--L--7--7--L--7--7--L--7--|
--------------------------------------|--------------------------------------|


  |--3--|  |--3--|  |--3--|  |--3--|   
  E  E  E  E  E  E  E  E  E  E  E  E   
--------------------------------------|
--------------------------------------|
--------------------------------------|
--3--L--3--3--L--3--5--L--5--5--L--5--|


  Coro A                                   
  |----3----|  |--3--|  |--3--|  |--3--|   
  E      E  E  E  E  E  E  E  E  E  E  E   
------------------------------------------|
------------------------------------------|
--7------L--7--7--L--7--7--L--7--7--L--7--|
------------------------------------------|


  |--3--|  |--3--|  |--3--|  |--3--|     |--3--|  |--3--|  |--3--|  |--3--|   
  E  E  E  E  E  E  E  E  E  E  E  E     E  E  E  E  E  E  E  E  E  E  E  E   
--------------------------------------|--------------------------------------|
--5--L--5--5--L-----------------------|--------------------------------------|
-----------------7--5--L--5--5--L--7--|--7--L--7--7--L--7--7--L--7--7--L--7--|
--------------------------------------|--------------------------------------|


  |--3--|  |--3--|  |--3--|  |--3--|     |--3--|  |--3--|  |--3--|  |--3--|   
  E  E  E  E  E  E  E  E  E  E  E  E     E  E  E  E  E  E  E  E  E  E  E  E   
--------------------------------------|--------------------------------------|
--------------------------------------|--------------------------------------|
--3--L--3--3--L--3--5--L--5--5--L--5--|--7--L--7--7--L--7--7--L--7--7--L--7--|
--------------------------------------|--------------------------------------|


  |--3--|  |--3--|  |--3--|  |--3--|     |--3--|  |--3--|  |--3--|  |--3--|   
  E  E  E  E  E  E  E  E  E  E  E  E     E  E  E  E  E  E  E  E  E  E  E  E   
--------------------------------------|--------------------------------------|
--5--L--5--5--L-----------------------|--------------------------------------|
-----------------7--5--L--5--5--L--7--|--7--L--7--7--L--7--7--L--7--7--L--7--|
--------------------------------------|--------------------------------------|


  |--3--|  |--3--|  |--3--|  |--3--|   
  E  E  E  E  E  E  E  E  E  E  E  E   
--------------------------------------|
--------------------------------------|
--3--L--3--3--L--3--5--L--5--5--L--5--|
--------------------------------------|


  Coro B                                   
  |----3----|  |--3--|  |--3--|  |--3--|   
  E      E  E  E  E  E  E  E  E  E  E  E   
------------------------------------------|
------------------------------------------|
--7------L--7--7--L--7--7--L--7--7--L--7--|
------------------------------------------|


  |--3--|  |--3--|  |--3--|  |--3--|     |--3--|  |--3--|  |--3--|  |--3--|   
  E  E  E  E  E  E  E  E  E  E  E  E     E  E  E  E  E  E  E  E  E  E  E  E   
--------------------------------------|--------------------------------------|
--5--L--5--5--L--5--5--L--5--5--L--5--|--7--L--7--7--L--7--7--L--7--7--L--7--|
--------------------------------------|--------------------------------------|
--------------------------------------|--------------------------------------|


   |-----3----|  |---3---|   |-----3----|  |---3---|   
   E   E   S  S  E   E   E   E   E   S  S  E   E   E   
------------------------------------------------------|
--10---L--10-10-10---L--10--12---L--12-12-12---L------|
--------------------------------------------------12--|
------------------------------------------------------|


  |--3--|  |--3--|  |--3--|  |--3--|     |--3--|  |--3--|  |--3--|  |--3--|   
  E  E  E  E  E  E  E  E  E  E  E  E     E  E  E  E  E  E  E  E  E  E  E  E   
--------------------------------------|--------------------------------------|
--------------------------------------|--5--L--5--5--L--5--5--L--5--5--L--5--|
--7--L--7--7--L--7--7--L--7--7--L--7--|--------------------------------------|
--------------------------------------|--------------------------------------|


  |--3--|  |--3--|  |--3--|  |--3--|   
  E  E  E  E  E  E  E  E  E  E  E  E   
--------------------------------------|
--7--L--7--7--L--7--7--L--7--7--L--7--|
--------------------------------------|
--------------------------------------|


   |-----3----|  |---3---|   |-----3----|  |---3---|   
   E   E   S  S  E   E   E   E   E   S  S  E   E   E   
------------------------------------------------------|
--10---L--10-10-10---L--10--12---L--12-12-12---L------|
--------------------------------------------------12--|
------------------------------------------------------|


  |--3--|  |--3--|  |--3--|  |--3--|     |--3--|  |--3--|  |--3--|  |--3--|   
  E  E  E  E  E  E  E  E  E  E  E  E     E  E  E  E  E  E  E  E  E  E  E  E   
--------------------------------------|--------------------------------------|
--------------------------------------|--5--L--5--5--L--5--5--L--5--5--L--5--|
--7--L--7--7--L--7--7--L--7--7--L--7--|--------------------------------------|
--------------------------------------|--------------------------------------|


  |--3--|  |--3--|  |--3--|  |--3--|   
  E  E  E  E  E  E  E  E  E  E  E  E   
--------------------------------------|
--7--L--7--7--L--7--7--L--7--7--L--7--|
--------------------------------------|
--------------------------------------|


   |-----3----|  |---3---|   |-----3----|  |---3---|   
   E   E   S  S  E   E   E   E   E   S  S  E   E   E   
------------------------------------------------------|
--10---L--10-10-10---L--10--12---L--12-12-12---L------|
--------------------------------------------------12--|
------------------------------------------------------|


  |--3--|  |--3--|  |--3--|  |--3--|     |--3--|  |--3--|  |--3--|  |--3--|   
  E  E  E  E  E  E  E  E  E  E  E  E     E  E  E  E  E  E  E  E  E  E  E  E   
--------------------------------------|--------------------------------------|
--------------------------------------|--5--L--5--5--L--5--5--L--5--5--L--5--|
--7--L--7--7--L--7--7--L--7--7--L--7--|--------------------------------------|
--------------------------------------|--------------------------------------|


  |--3--|  |--3--|  |--3--|  |--3--|   
  E  E  E  E  E  E  E  E  E  E  E  E   
--------------------------------------|
--7--L--7--7--L--7--7--L--7--7--L--7--|
--------------------------------------|
--------------------------------------|


   |-----3----|  |---3---|   |-----3----|  |---3---|   
   E   E   S  S  E   E   E   E   E   S  S  E   E   E   
------------------------------------------------------|
--10---L--10-10-10---L--10--12---L--12-12-12---L--12--|
------------------------------------------------------|
------------------------------------------------------|


   Outro                                             
   |----3----|   |---3---|   |---3---|   |---3---|   
   E     E   E   E   E   E   E   E   E   E   E   E   
----------------------------------------------------|
--14----14--14--14--14--14--14--14--14--14--14--14--|
----------------------------------------------------|
----------------------------------------------------|


   |---3---|   |---3---|   |---3---|           |--3--|       |--3--|         
   E   E   E   E   E   E   E   E   E   Q       E  E  E  Q    E  E  E  Q      
--------------------------------------------|------------------------------||
--14--14--14--14--14--14--14--14--14--14----|----------------5--L--5-------||
--------------------------------------------|--7--L--7---------------------||
--------------------------------------------|------------------------------||
            
Submit corrections

↑ Back to top | Tablatures and chords for acoustic guitar and electric guitar, ukulele, drums are parodies/interpretations of the original songs. You may use it for private study, scholarship, research or language learning purposes only