» » »

Iron Maiden - Running Free Tabs

Artists:  A B C D E F G H I J K L M N O P Q R S T U V W X Y Z # 

Running Free Tabs

(ver. 2) Click to play this song!
Iron Maiden
 Rating:
4/5 (4 votes)
    Running Free lessons Tabs too difficult? Try these video lessons and learn fast
                Here is the tab for the solo in "Running Free" by Iron Maiden. The existing
tab in OLGA is fine except that only one out of two guitar parts is tabbed.
Cheers, Sergei.

It's not really needed to tab the verses, bridges and the chorus. It's mostly
variations on Em.
Intro: Em G-F#-D-Em  C D      The chords from G to Em are 8th notes approx.

Verse:Em C D Em G A  etc

Chorus: Em G D-Em C D


                             RUNNING FREE
                                 (solo)
I tabbed it as two parts, each one is for two guitars.
Every note played on the first guitar corresponds to a note on the second.

GUITAR I
-9----------------------------------------------------------
--12-10-12-10----10-----------------------------------------
--------------12----12-11-12-11-9-11-9----9-----------------
---------------------------------------12---12-11-12-11-9---
----------------------------------------------------------12
------------------------------------------------------------


Guitar II
-5-------------------------------------------
---8-7-8-7-5-7-5---5-------------------------
-----------------7---7-6-7-6-4-6-4---4-------
-----------------------------------7---7-5-4-
---------------------------------------------
---------------------------------------------
                           Play this part twice.
                                 Then ....


Guitar I
17--------------------------------------------------------------
---20-19-20-19-17-19-17----17-----------------------------------
------------------------19----19-18-17-18-16-18-16----16--------
---------------------------------------------------19---19-17-16



Guitar II
-14---------------------------------------------------------------
----17-15-17-15-14-15-14----14------------------------------------
-------------------------16----16-14-16-14----14------------------
-------------------------------------------17---17-16-17-16-14----

Play it twice , then :

Guitar I


----------------------------------------------------
-----------------------------------------------------
-16----------16---------16-------16------16----------
----19-17-16---19-17-16----19-17---19-17----19-17-16-
-----------------------------------------------------
-----------------------------------------------------



Guitar II

----------------------------------------------------
----------------------------------------------------
----------------------------------------------------
17-16-14-   17-16-14  -17-16-14-17-16-14-17-16-14---
---------17---------17----------------------------17
-=--------------------------------------------------


Then pick Em for some time
                          and..


Guitar I:

14-14-14-----12-14-12-------------19
 -----------------------15-15-15-----
------------------------------------
---------------------
---------------------
----------------------


Guitar II :

-12-12-12------------------------------15
------------15-15-15---------------------
------------------------16-16-16---------
-----------------------------------------
-----------------------------------------
-----------------------------------------

And another little piece:


 Guitar I:                      Guitar II:

-5-7-5-  5--                    2-3-2-0-2-
-------7-----                   ----------
-------------       with        ----------
-------------                   ----------
-------------                   ----------
-------------                   ----------

You guys can easily figure out when to play the last two licks.

Have fun with it and tell me if there are mistakes in the tab. (Eddie, I hope
Vick
            
Submit corrections

↑ Back to top | Tablatures and chords for acoustic guitar and electric guitar, ukulele, drums are parodies/interpretations of the original songs. You may use it for private study, scholarship, research or language learning purposes only