» » »

Iron Maiden - Fear Of The Dark Tabs

Artists:  A B C D E F G H I J K L M N O P Q R S T U V W X Y Z # 

Fear Of The Dark Tabs

(ver. 2) Click to play this song!
Iron Maiden
 Rating:
4.2/5 (22 votes)

 Fear Of The Dark lessons Tabs too difficult? Try these video lessons and learn fast
 
                [Intro]
e|---------------------------------------------------------------------------|
B|---------55--55-77-88-77-55-77-33----33-55-77-55-33-7-3--------------------|
G|-----------55---------------------33---------------------------------------|2x
D|---------------------------------------------------------------------------|
A|---------------------------------------------------------------------------|
E|---------------------------------------------------------------------------|

e|---------------------------------------------------------------------------|
B|---------------------------------------------------------------------------|
G|---------------------------------------------------------------------------|2x 
D|----55--55-77-88-77-55-77-33----33-55-77-55-33-7-3-------------------------|
A|------55------------------|--33--------------------------------------------|
E|--------------------------|------------------------------------------------|
                      |     |play this pard slower the second time              

            
Submit corrections


        Fear Of The Dark lessons Hard to play? Try these video lessons and learn fast Fear Of The Dark lessons
        
↑ Back to top | Tablatures and chords for acoustic guitar and electric guitar, ukulele, drums are parodies/interpretations of the original songs. You may use it for private study, scholarship, research or language learning purposes only